» » »

La Dispute - How I Feel Tabs

Artists:  A B C D E F G H I J K L M N O P Q R S T U V W X Y Z # 

How I Feel Tabs

(ver. 2) Click to play this song!
La Dispute
 Rating:
4/5 (4 votes)

 How I Feel lessons Tabs too difficult? Try these video lessons and learn fast
 
                0:00
e|---------------------------------------------------------------|
B|-33303330333033303330333033303330------------------------------|
G|-44444444444444444444444444444444------------------------------|
D|-22222222222222222222222222222222------------------------------|
A|---------------------------------------------------------------|
D|---------------------------------------------------------------|

0:05
e|---------------------------------------------------------------|
B|---------------------------------------------------------------|
G|---------------------------------------------------------------|
D|-2---------2---------2---------5-5-----------------------------|
A|-2--3-2----2--3-2----2--3-2----5-5-----------------------------|
D|-2------5--2------5--2------5--5-5-----------------------------|

0:21
e|---------------------------------------------------------------|
B|---------------------------------------------------------------|
G|---------------------------------------------------------------|
D|-9-/-12-\-5----4-/-7-\-2---------------------------------------|
A|-9-/-12-\-5----4-/-7-\-2---------------------------------------|
D|-9-/-12-\-5----4-/-7-\-2---------------------------------------|

0:36
e|---------------------------------------------------------------|
B|---------------------------(there's some noise      )----------|
G|---------------------------(some harmonics and such )----------|
D|-2----2----2----2----5-5---------------------------------------|
A|-2----2----2----2----5-5---------------------------------------|
D|-2----2----2----2----5-5---------------------------------------|

0:52
e|---------------------------------------------------------------|
B|-33303330333033303330333033303330------------------------------|
G|-44444444444444444444444444444444------------------------------|
D|-22222222222222222222222222222222------------------------------|
A|---------------------------------------------------------------|
D|---------------------------------------------------------------|

1:06
e|---------------------------------------------------------------|
B|---------------------------------------------------------------|
G|-9~------7~------5~------4~------------------------------------|
D|----9~------7~------5~------5~---------------------------------|
A|---------------------------------------------------------------|
D|---------------------------------------------------------------|

1:17
G|--(BASS)-------------------------------------------------------------|
D|---------------------------------------------------------------------|
A|-77777777-55555555-33333/5-2222------3333-2222-5/777-5/777-5/777-----|
D|--------------------------------5555-----------------------------222-|

1:28
e|---------------------------------------------------------------|
B|---------------------------------------------------------------|
G|---------------------------------------------------------------|
D|---------------------------------------------------------------|
A|-2222222---2222-4444-------------------------------------------|
D|-5555555---4444-7777-------------------------------------------|

            
Submit corrections


        How I Feel lessons Hard to play? Try these video lessons and learn fast How I Feel lessons
        
↑ Back to top | Tablatures and chords for acoustic guitar and electric guitar, ukulele, drums are parodies/interpretations of the original songs. You may use it for private study, scholarship, research or language learning purposes only