» » »

La Dispute - Edward Benz 27 Times Tabs

Artists:  A B C D E F G H I J K L M N O P Q R S T U V W X Y Z # 

Edward Benz 27 Times Tabs

(ver. 2) Click to play this song!
La Dispute
 Rating:
4.2/5 (20 votes)

 Edward Benz 27 Times lessons Tabs too difficult? Try these video lessons and learn fast
 
                Part 1: Intro
|-----1-3-5~5-3-1--|   |-----0-1-3~3-1-0--|
|-3~3--------------|   |-1~1--------------|   
|------------------|x2 |------------------|x2  
|------------------|   |------------------|
|------------------|   |------------------|
|------------------|   |------------------|

This part comes immediately after the intro. Probably not 100% right.

Part 2A: Verse          Part 2B: Guitar 2
|-------------------|   |--------------------|\
|-----------5-5-5-5-|   |--------------------| \ Guitar 2 plays this part
|---5h7p5---7-7-7-7-|x3 |---5h7p5---5-7-9-10-|  \ over guitar one plays 
|---------7-5-5-5-5-|   |---------7----------|  / Part 2A 5 times
|-0-----------------|   |-0------------------| /
|-0-----------------|   |-0------------------|/

End with:                      Then end with:
      
|---|\                         |-------|\
|---| \                        |-------| \
|---|  \    After playing      |-------|  \ Play this after
|-8-|  / part 2 the first time |-8-5-8-|  / Part 2B
|-8-| /                        |-8-5-8-| /
|-8-|/                         |-8-5-8-|/

Part 3

|-----------------|   |-----------------|
|-----------------|   |-----------------|
|-------9-9-10-10-|x6 |-------10-10-9-9-|
|-0-0-------------|   |-8-8-------------|
|-0-0---7-7-8--8--|   |-8-8---8--8--7-7-|
|-0-0-------------|   |-8-8-------------|

|-----------------|   |-----------------|
|-----------------|   |-----------------|
|-------9-9-10-10-|x4 |-------10-10-9-9-|x3
|-0-0-------------|   |-8-8-------------|
|-0-0---7-7-8--8--|   |-8-8---8--8--7-7-|
|-0-0-------------|   |-8-8-------------|

|-----------------|   |------|\
|-----------------|   |------| \
|-------10-10-9-9-|   |------|  \ Play this
|-8-8-------------|   |-8-8--|  / to end Part 3
|-8-8---8--8--7-7-|   |-8-8--| /
|-8-8-------------|   |-8-8--|/

Part 4

|--------------------|
|--------------------|
|--------------------|
|------------3-------|
|--------3h5---5-3-1-|
|-0~-5h7-------------|

|------------------------|
|------------------------|
|------------------------|
|------------3---------3-|
|--------3h5---5-3-1---3-|
|-0~-5h7---------------3-|            
Submit corrections


        Edward Benz 27 Times lessons Hard to play? Try these video lessons and learn fast Edward Benz 27 Times lessons
        
↑ Back to top | Tablatures and chords for acoustic guitar and electric guitar, ukulele, drums are parodies/interpretations of the original songs. You may use it for private study, scholarship, research or language learning purposes only