» » »

La Dispute - Bury Your Flame Tabs

Artists:  A B C D E F G H I J K L M N O P Q R S T U V W X Y Z # 

Bury Your Flame Tabs

(ver. 2) Click to play this song!
La Dispute
 Rating:
4/5 (4 votes)

 Bury Your Flame lessons Tabs too difficult? Try these video lessons and learn fast
 
                == GUITAR ONE ==

0:00
e|-13-10----------------------(10)--------------------------------------------|
B|-------13-10----------------------------------------------------------------|
G|-------------12-10-------------------------10-------------12-10----10-------|
D|-------------------12-10-12-------------10----12-10-12----------12----12-10-|
A|-------------------------------------12-------------------------------------|
D|----------------------------------12----------------------------------------|


0:11
e|------------------------------------------------------------------------------|
B|------------------------------------------------------------------------------|
G|------------------------------------------------------10------------12b14-10--|
D|-------------10-12------------------12----12-12-10---------12-10--------------|
A|-------10-12------------------10-12----------------12------------12-----------|
D|-10-12------------------10-12-------------------------------------------------|


0:16
e|------13------------------------------|
B|-----13-------------------------------|
G|----12----------12-10----10-----------|
D|---12-----------------12-----12-10-12-|
A|--12----------------------------------|
D|-12-----------------------------------|


0:23
e|---------------------------------------------------|
B|---------------------------------------------[x2]--|
G|---------------------------------------7p5---------|
D|-0--0h7h10--0-0h10h12-----0-0h7h10--0------6-------|
A|---------------------------------------------6-----|
D|---------------------------------------------------|

e|---------------------------------------------------------------------|
B|-------------------------------------------6-------------------------|
G|---------------------------------------5-7---7-5---5-----------------|
D|---0h7h10--0-0h10h12-----0-0h7h10--7-------------7---7-5---5---------|
A|---------------------------------------------------------8---8-7-6-5-|
D|---------------------------------------------------------------------|
                                                
e|---------------------------------------------------|
B|---------------------------------------------[x2]--|
G|---------------------------------------7p5---------|
D|-0--0h7h10--0-0h10h12-----0-0h7h10--0------6-------|
A|---------------------------------------------6-----|
D|---------------------------------------------------|

e|---------------------------------------------------------------------|
B|-------------------------------------------6-------6-----------------|
G|---------------------------------------5-7---7-5-7---7-5-------------|
D|---0h7h10--0-0h10h12-----0-0h7h10--7---------------------7-5-5-5-----|
A|---------------------------------------------------------------------|
D|---------------------------------------------------------------------|
                                                


0:47
e|---------------------------------|-----------------------------------------|
B|---------------------------------|------------15----15---------------------|
G|-----------7-7-------------------|------------17b19-19---------------------|
D|-0003330---7-7-030---3h5p3p0-3-3-|-0003330-------------5-3---3-------------|
A|-0003330-------030---------------|-0003330-----------------5----5-3-5--3---|
D|-0003330-------030---------------|-0003330-------------------------------3-|

e|---------------------------------|-----------------------------------------------|
B|---------------------------------|------------15----15---------------------------|
G|-----------7-7-------------------|------------17b19-19---------------------------|
D|-0003330---7-7-030---3h5p3p0-3-3-|-0003330-------------5-3---3--------6-6b-5-3-0~|
A|-0003330-------030---------------|-0003330-----------------5----5-3-5-6-6b-5-3-0~|
D|-0003330-------030---------------|-0003330----------------------------6-6b-5-3-0~|


1:15
e|-----------------------|
B|-----------------------|
G|-2--7--3--5--7--3--5--.|
D|----------------------.|
A|-----------------------|
D|--repeat for a while---|


2:19
e|-------------------------|
B|-66666--6-6--------8888--|
G|-77777--7-7--------9999--|
D|-00000-------0000--------|
A|-00000-------0000--------|
D|-00000-------0000--------|


2:30
e|---------------------------------------------------|
B|---------------------------------------------[x2]--|
G|---------------------------------------7p5---------|
D|-0--0h7h10--0-0h10h12-----0-0h7h10--0------6-------|
A|---------------------------------------------6-----|
D|---------------------------------------------------|

e|---------------------------------------------------------------------|
B|-------------------------------------------6-------------------------|
G|---------------------------------------5-7---7-5---5-----------------|
D|---0h7h10--0-0h10h12-----0-0h7h10--7-------------7---7-5---5---------|
A|---------------------------------------------------------8---8-7-6-5-|
D|---------------------------------------------------------------------|
                                                
e|---------------------------------------------------|
B|---------------------------------------------[x2]--|
G|---------------------------------------7p5---------|
D|-0--0h7h10--0-0h10h12-----0-0h7h10--0------6-------|
A|---------------------------------------------6-----|
D|---------------------------------------------------|

e|---------------------------------------------------------------------|
B|-------------------------------------------6-------6-----------------|
G|---------------------------------------5-7---7-5-7---7-5-------------|
D|---0h7h10--0-0h10h12-----0-0h7h10--7---------------------7-5-5-5-----|
A|---------------------------------------------------------------------|
D|---------------------------------------------------------------------|


2:55
e|-----------------------------|---------------------------------------------|
B|-----------------------------|---------------------------------------------|
G|-----------777-7-1010-7--[x2]|-77-10-7-77-10-7-77-10-7-77-10-7-10-xx-10-xx-|
D|-0003330---xxx-x-x-x--x------|-xx-x--x-xx-x--x-xx-x--x-xx-x--x-x--xx-x--xx-|
A|-0003330---555-5-8-8--5------|-55-8--5-55-8--5-55-8--5-55-8--5-8--xx-8--xx-|
D|-0003330---------------------|---------------------------------------------|

e|---------------------------------------------------------------------------|
B|---------------------------------------------------------------------------|
G|---------------------------------------------------------------------------|
D|-55555555555555xx5xx5xx5xx-------------------------------------------------|
A|-55555555555555xx5xx5xx5xx------------------5---6------------------5---6---|
D|-55555555555555xx5xx5xx5xx-----0--3h5p3-0-0---0---0----0-3h5p3-0-0---0---0-|

e|---------------------------------------------------------------------------|
B|---------------------------------------------------------------------------|
G|---------------------------------------------------------------------------|
D|-5555555555555111111111111-------------------------------------------------|
A|-5555555555555111111111111------------------5---6------------------5---6---|
D|-5555555555555111111111111-----0--3h5p3-0-0---0---0----0-3h5p3-0-0---0---0-|

e|---------------------------------------------------------------------------------|
B|---------------------------------------------------------------------------------|
G|-10-10-10-10-10--15-15-15-15-----------------------------------------------------|
D|-x--x--x--x--x---x--x--x--x------------------------------------------------------|
A|-8--8--8--8--8---13-13-13-13-------------------5---6----------------------5---6--|
D|-------------------------------0-3h5p3-0-0---0---0---0----0-3h5p3-0-0---0---0----|


3:35
e|---------------------------------------------------------------|
B|---------------------------------------------------------------|
G|---------------------------------------------------------------|
D|-0-0-0---3-3-3-3---0-0-0---3-3---------------------------------|
A|-0-0-0---3-3-3-3---0-0-0---3-3----10---------------------------|
D|-0-0-0---3-3-3-3---0-0-0---3-3-5/------------------------------|


3:46
e|--------------------------------------------------------------------------------|
B|--------------------------------------------------------------------------------|
G|-11---11---11-------14----14----14----14-----11---11---11----10--10---9---9-----|
D|-----------------------------------------------------------------------------3--|
A|----9----9-------------12----12----12-----------9----9---------8----8---7----3--|
D|-----------------------------------------------------------------------------3--|


3:58
e|----------------------------------------------------------------|
B|----------------------------------------------------------------|
G|-------------------------------------------------------7-7------|
D|-0-12-3-5-555-3-0~---0-12-3-5-555-3-0~---0-12-3-5-5553-7-7-7--3-|
A|-0-12-3-5-555-3-0~---0-12-3-5-555-3-0~---0-12-3-5-5553-5-5-7--3-|
D|-0-12-3-5-555-3-0~---0-12-3-5-555-3-0~---0-12-3-5-5553-----7--3-|



== GUITAR TWO ==


0:23
e|---------------------------------------------------------------|
B|---------------------------------------------------------------|
G|---------------------------------------------------------------|
D|-0-0~---3-3~---5/10-10~---10\0-0~-----[x2]---------------------|
A|-0-0~---3-3~---5/10-10~---10\0-0~------------------------------|
D|-0-0~---3-3~---5/10-10~---10\0-0~------------------------------|


0:47
e|---------------------------------|-----------------------------------------|
B|---------------------------------|-----------------------------------------|
G|-----------7-7-------------------|------------7-7--------------------------|
D|-0003330---7-7-030---3h5p3p0-3-3-|-0003330----7-7------5-3---3-------------|
A|-0003330-------030---------------|-0003330-----------------5----5-3-5--3---|
D|-0003330-------030---------------|-0003330-------------------------------3-|

e|---------------------------------|-----------------------------------------------|
B|---------------------------------|-----------------------------------------------|
G|-----------7-7-------------------|------------7-7--------------------------------|
D|-0003330---7-7-030---3h5p3p0-3-3-|-0003330----7-7------5-3---3--------6-6b-5-3-0~|
A|-0003330-------030---------------|-0003330-----------------5----5-3-5-6-6b-5-3-0~|
D|-0003330-------030---------------|-0003330----------------------------6-6b-5-3-0~|


1:31
e|---------------------------|-----------------------------------|
B|---------------------------|-----------------------------------|
G|---------------------[x4]--|-----------------------------------|
D|-----5----3----------------|----5---3--------------[x4]--------|
A|-------3----5---5----5-----|------3---5--5----5--3-------------|
D|-0----------------8--------|-0-------------8-------------------|


2:19
e|-------------------------|
B|-66666--6-6--------8888--|
G|-77777--7-7--------9999--|
D|-00000-------0000--------|
A|-00000-------0000--------|
D|-00000-------0000--------|


2:30
e|---------------------------------------------------------------|
B|---------------------------------------------------------------|
G|---------------------------------------------------------------|
D|-0-0~---3-3~---5/10-10~---10\0-0~-----[x4]---------------------|
A|-0-0~---3-3~---5/10-10~---10\0-0~------------------------------|
D|-0-0~---3-3~---5/10-10~---10\0-0~------------------------------|


3:00
e|-----------------------------------------------------------------------------|
B|-----------------------------------------------------------------------------|
G|-141414-17-14---141414-17-14--14-17-14--14-17-14--14-17-14--17-x-x-17-x-x-17-|
D|-x-x-x--x--x----x-x-x--x--x---x--x--x---x--x--x---x--x--x---x--x-x-x--x-x-x--|
A|-121212-15-12---121212-15-12--12-15-12--12-15-12--12-15-12--15-x-x-15-x-x-15-|
D|-----------------------------------------------------------------------------|


3:07
e|---------------------------------------------------|
B|---------------------------------------------------|
G|---------------------------------------------------|
D|-5555555555555--5--5--5--5--12--12--12--12--12--12-|
A|-5555555555555--5--5--5--5--12--12--12--12--12--12-|
D|-5555555555555xx5xx5xx5xx5--12xx12xx12xx12xx12xx12-|

e|---------------------------------------------------|
B|---------------------------------------------------|
G|---------------------------------------------------|
D|-5555555555555111111111111--12--12--12--12--12--12-|
A|-5555555555555111111111111--12--12--12--12--12--12-|
D|-5555555555555111111111111--12xx12xx12xx12xx12xx12-|

e|---------------------------------------------------|
B|---------------------------------------------------|
G|---------------------------------------------------|
D|-5--5--5--5--1--1--1--1--1--12--12--12--12--12--12-|
A|-5--5--5--5--1--1--1--1--1--12--12--12--12--12--12-|
D|-5xx5xx5xx5xx1xx1xx1xx1xx1--12xx12xx12xx12xx12xx12-|

e|---------------------------------------------------|
B|---------------------------------------------------|
G|---------------------------------------------------|
D|-5555555555555111111111111-------------------------|
A|-5555555555555111111111111---------------5---6-----|
D|-5555555555555111111111111--0--3h5p3-0-0---0---0---|


e|----------------------|
B|----------------------|
G|----------------------|
D|----------------------|
A|--------------5---6---|
D|-0--3h5p3-0-0---0---0-|


3:35
e|---------------------------------------------------------------|
B|---------------------------------------------------------------|
G|---------------------------------12----------------------------|
D|-0-0-0---3-3-3-3---0-0-0---3-3-5-x-----------------------------|
A|-0-0-0---3-3-3-3---0-0-0---3-3-5-10----------------------------|
D|-0-0-0---3-3-3-3---0-0-0---3-3-5-------------------------------|

e|---------------------------------------------------------------|
B|---------------------------------------------------------------|
G|---------------------------------------------------------------|
D|-0-0-0---3-3-3-3---0-0-0---3-3-3-5--3--------------------------|
A|-0-0-0---3-3-3-3---0-0-0---3-3-3-5--3--------------------------|
D|-0-0-0---3-3-3-3---0-0-0---3-3-3-5--3--------------------------|


3:58
e|----------------------------------------------------------------|
B|----------------------------------------------------------------|
G|-------------------------------------------------------7-7-6----|
D|-0-12-3-5-555-3-0~---0-12-3-5-555-3-0~---0-12-3-5-5553-x-x-x--3-|
A|-0-12-3-5-555-3-0~---0-12-3-5-555-3-0~---0-12-3-5-5553-5-5-4--3-|
D|-0-12-3-5-555-3-0~---0-12-3-5-555-3-0~---0-12-3-5-5553--------3-|
            
Submit corrections


        Bury Your Flame lessons Hard to play? Try these video lessons and learn fast Bury Your Flame lessons
        
↑ Back to top | Tablatures and chords for acoustic guitar and electric guitar, ukulele, drums are parodies/interpretations of the original songs. You may use it for private study, scholarship, research or language learning purposes only