» » »

Lacrimosa - The Phantom Of The Opera Bass

Artists:  A B C D E F G H I J K L M N O P Q R S T U V W X Y Z # 

The Phantom Of The Opera Bass

(ver. 1) Click to play this song!
Lacrimosa
 Rating:
4/5 (4 votes)


 The Phantom Of The Opera lessons Tabs too difficult? Try these video lessons and learn fast
 
                LACRIMOSA (version)
                                   THE PHANTOM OF THE OPERA


       INTRO 00:04

G|---------------------------------------|
D|---------------------------------------|
A|-5--5-5---5--5-4-3-2-1--1-1---1--1-1---|
D|---------------------------------------|


G|----------------------------------------------|
D|----------------------------------------------|
A|-5--5-5---5--5-4-3-2-1--1-1---0-1--1-2-3-4-5--|
D|----------------------------------------------|

      1er verso (clarise) 00:20 

G|----------------------------------------------|
D|----------------------------------------------|==>(x3)
A|-5--5-5-5--5--5-5-5------------3--3-3-3-------|
D|---------------------8--8-8-8-----------------|

G|-------------------------------------------------------------|
D|-------------------------------------------------------------|
A|-5--5-5-5--5--5-5-5----------------------5--5-5-5--5--5-5-5--|
D|---------------------8--8-8-8--8--8-8-8----------------------|
      *fin del primer verso


      PUENTE 1 00:55

G|----------------------------------------------|
D|----------------------------------------------|
A|-5--5-5---5--5-4-3-2-1---0-1--5-4-3-2-(1)-----|
D|-------------------------------------------5--|

      2do verso (phantom) 01:04

G|----------------------------------------------|
D|----------------------------------------------|==>(x3)
A|----------------------------------------------|
D|-5--5-5-5--5--5-5-5---1--1-1-1---3--3-3-3-----|

G|--------------------------------------------------------------|
D|--------------------------------------------------------------|
A|--------------------------------------------------------------|
D|-5--5-5-5--5--5-5-5---1--1-1-1--1--1-1-1---5--5-5-5--5--5-5-5-|
     *fin del sugundo verso

      PUENTE 2 01:39

G|------------------------------|
D|------------------------------|
A|------------------------------|
D|-5--5-5---5--5-4-3-2-1---2----|

      3er verso 01:47

G|--------------------------------------------|
D|--------------------------------------------|
A|--------------------------------------------|==>(x3)
D|-2--2-2-2--2--2-2-2---7--7-7-7---0--0-0-0---|

G|---------------------------------------------------------------|
D|---------------------------------------------------------------|
A|---------------------------------------------------------------|
D|-2--2-2-2--2--2-2-2---1--1-1-1---1--1-1-1---2--2-2-2--2--2-2-2-|

      SOLO 02:23

G|--------------------------------------------|
D|--------------------------------------------|
A|-7--7-7---7--7-6-5-4-3--3-3---3--3-4-5-6-7--|==>(x4)
D|--------------------------------------------|

G|----------------------|
D|----------------------| *02:54
A|--3-4-5-6-7----5--7---|
D|----------------------|

      4to verso 02:59

G|---------------------------------------------|
D|---------------------------------------------|
A|-4--4-4-4---7--7-7-7---8--8-8-8--8--8-8-8----|
D|

G|---------------------|
D|---------------------|
A|-8--8-8-8--8--8-8-8--| asta que llegue el final 03:23
D|---------------------|


     SOLO DEL FINAL

#1 03:32

G|---------------------------------------------|
D|---------------------------------------------|
A|-8--8-8---8--8-7-6-5-4--4-4---4--4-5-6-7-8---|==>(X3)
D|---------------------------------------------|

#2 03:55

G|---------------------------------------------|
D|---------------------------------------------|
A|---------------------------------------------|==>(X2)
D|-5--5-5---5--5-4-3-2-1--1-1---1--1-2-3-4-5---|

#3 04:11

G|---------------------------------------------|
D|---------------------------------------------|
A|---------------------------------------------|==>(X2)
D|-7--7-7---7--7-6-5-4-3--3-3---3--3-4-5-6-7---|



 Esta tablatura fue hecha bajo la interpretacion del autor de esta tablatura puede que tenga unos errores ya que esta solo ésta hecha para ser estudiada y ser tomado como referencia para hacerle tus propias correcciones y que viva el rock.
AUTOR: 
Julio Alfonso Gelain del Castillo  (luzyferia)
luzyferia


                           !!!!!!!!VIVA MEXICO CABRONES¡¡¡¡¡¡¡¡¡¡
            
Submit corrections



        The Phantom Of The Opera lessons Hard to play? Try these video lessons and learn fast The Phantom Of The Opera lessons
        
↑ Back to top | Tablatures and chords for acoustic guitar and electric guitar, ukulele, drums are parodies/interpretations of the original songs. You may use it for private study, scholarship, research or language learning purposes only