Home » L » Lacrimosa »

Lacrimosa - Lacrimosa Tabs

Artists:  A B C D E F G H I J K L M N O P Q R S T U V W X Y Z # 

Lacrimosa Tabs

(ver. 1) Click to play this song!
Lacrimosa
(Theme)
LACRIMOSA THEME

        / - slide up
        ( ) - chords behind the main melody
        ~ - let the note sound
                
INTRO: keyboard
  
e|-10--9--8--7------/10-10--9-9--8-8--7-----/10-10--9-9--8-8--7--|
B|---------------------------------------------------------------|
G|---------------------------------------------------------------|
D|---------------------------------------------------------------|
A|---------------------------------------------------------------|
E|---------------------------------------------------------------|

ENTERS ORCHESTA:
   
|---------------------------------------------------------------|
|---------------------------------------------------------------|
|-------4--5--------------4--5-----------4--5-----------4--5----|
|---------------------------------------------------------------|
|--0~~~~~~~~~~~~~~~~~~~~~~~~~~~~~~~~~~~~~~~~~~~~~~~~~~~~~~~~~~--|
|---------------------------------------------------------------|

THEN:
    Gm              Dm            Am              E         
|--(3)---6--5--3---(5)---5--3--1--0----8--7--5---(0)---4--5--7-----| 
|--(3)-------------(6)-----------(1)-------------(0)---------------| 
|--(3)-------------(7)-----------(2)-------------(1)---------------| 
|--(5)-------------(7)-----------(2)-------------(2)---------------| 
|--(5)-------------(5)-----------(0)-------------(2)---------------| 
|--(3)-------------------------------------------(0)---------------| 
                   |X2 
   Gm                  Dm               Am               E               
|--(3)---13--12--10---(5)---13--12--10--8---12--10--8----12--------|   
|--(3)----------------(6)--------------(1)--------------(0)--------|  
|--(3)----------------(7)--------------(2)--------------(1)--------|  
|--(5)----------------(7)--------------(2)--------------(2)--------| 
|--(5)----------------(5)--------------(0)--------------(2)--------| 
|--(3)--------------------------------------------------(0)--------|
            
Submit corrections

↑ Back to top | Tablatures and chords for acoustic guitar and electric guitar, ukulele, drums are parodies/interpretations of the original songs. You may use it for private study, scholarship, research or language learning purposes only