» » »

Lacrimosa - Ich Verlasse Heut Dein Herz Bass

Artists:  A B C D E F G H I J K L M N O P Q R S T U V W X Y Z # 

Ich Verlasse Heut Dein Herz Bass

(ver. 1) Click to play this song!
Lacrimosa
 Rating:
4/5 (4 votes)
                Intro
G--------------------------
D----------------0---------
A-3-2-1-0---0--0---3-------
E--------------------3--34-

Main Line:
G-------------------------------------------
D-------------------------------------------
A--0000000-------00------------------22-----
E----------0-1111--11--33333331--4441---44--
            
Submit corrections

↑ Back to top | Tablatures and chords for acoustic guitar and electric guitar, ukulele, drums are parodies/interpretations of the original songs. You may use it for private study, scholarship, research or language learning purposes only