Home » L » Lacrimosa »

Lacrimosa - Bresso Tabs

Artists:  A B C D E F G H I J K L M N O P Q R S T U V W X Y Z # 

Bresso Tabs

(ver. 1) Click to play this song!
Lacrimosa
repeat this for the first 1:09 mins
:-------------------------------------------------------------|
:-------------------------------------------------------------|
:--------1----------------1---------------5-------------5-----|
:-2----2----2----2------2----2-----6----6---6----6----6---6---| x %
:-2--2--------2--2---2---------2---6--6-------6--6--6-------6-|
:-0--------------0-----------------4-------------4------------|



e:----------------------------------------------------------|
B:---------3---3---------3---3--------3---3---------3---3---|
G:-------4---4---4---------4---4--------4---4---------4---4-|
D:-----4--------------4-------------4------------4----------|
A:---2--------------2-------------2------------2------------|
E:-2--------------------------------------------------------|

e:--------------------------------------------------------------------|
B:---------2---2------------2---2------------2---2------------2---2---|
G:-------3---3---3--------3---3---3--------3---3---3--------3---3---3-|
D:-----4----------------4----------------4----------------4-----------|
A:---4----------------4----------------4----------------4-------------|
E:-2----------------2----------------2----------------2---------------|

e:--------------------------------------------------------|
B:------5---5--------5---5----------5---5---------5---5---|
G:--------6---6--------6---6----------6---6---------6---6-|
D:---6-------------6-------------6--------------6---------|
A:-4-------------4-------------4--------------4-----------|
E:--------------------------------------------------------|

:--------------------------------------------------------|
:--------------------------------------------------------|
:------5---5--------5---5----------5---5---------5---5---|
:--------6---6--------6---6----------6---6---------6---6-|
:---6-------------6-------------6--------------6---------|
:-4-------------4-------------4--------------4-----------|


:---------------------------------------------------------------------------|
:-5-5-5-5-5-5-5-----------------------------------3-3-3-3-3-3-3---2-2-2-2-2-|
:-6-6-6-6-6-6-6---5-5-5-5-5-5-5---3-3-3-3-3-3-3---4-4-4-4-4-4-4---2-2-2-2-2-|
:-6-6-6-6-6-6-6---6-6-6-6-6-6-6---4-4-4-4-4-4-4---4-4-4-4-4-4-4---2-2-2-2-2-| x 3
:-4-4-4-4-4-------6-6-6-6-6-6-6---4-4-4-4-4-4-4---2-2-2-2-2-2-2---0-0-0-0-0-|
:-----------------4-4-4-4-4-------2-2-2-2-2-2-2-----------------------------|


e:--------------------------------------------------------------------------------|
B:--------------------------------------------------------------------------------|
G:-6-6-6-6-6-6-6-6-6-6-6-6-6--9-9-9-9-9-9-9-9-9-9-9-9--10-10-10-10-10-10-10-10-10-|
D:-6-6-6-6-6-6-6-6-6-6-6-6-6--9-9-9-9-9-9-9-9-9-9-9-9--10-10-10-10-10-10-10-10-10-|
A:-4-4-4-4-4-4-4-4-4-4-4-4-4--7-7-7-7-7-7-7-7-7-7-7-7--8--8--8--8--8--8--8--8--8--|
E:--------------------------------------------------------------------------------|

e:-----------------------------------------------------------------------------------------|
B:-----------------------------------------------------------------------------------------|
G:-4-4-4-4-4---------------------------------6-6-6-6-6-6-6-6-6-6-6-6-6-6-6-6-6-6-6-6-6-6-6-|
D:-4-4-4-4-4--5-6-7-8--8-8-8-8-8--2-2-2-2-2--6-6-6-6-6-6-6-6-6-6-6-6-6-6-6-6-6-6-6-6-6-6-6-|
A:-2-2-2-2-2--5-6-7-8--8-8-8-8-8--2-2-2-2-2--4-4-4-4-4-4-4-4-4-4-4-4-4-4-4-4-4-4-4-4-4-4-4-|
E:------------3-4-5-6--6-6-6-6-6--0-0-0-0-0------------------------------------------------|

e:----------------------------------------------------------------------------------------|
B:-5-5-5-5-5-5-5-5-5-5-5-5-5-5-5-5-5-5---13-13-13-13-13-13-13-13-13--11-11-11-11-11-11-11-|
G:-6-6-6-6-6-6-6-6-6-6-6-6-6-6-6-6-6-6---14-14-14-14-14-14-14-14-14--12-12-12-12-12-12-12-|
D:-6-6-6-6-6-6-6-6-6-6-6-6-6-6-6-6-6-6---14-14-14-14-14-14-14-14-14--12-12-12-12-12-12-12-|
A:-4-4-4-4-4-4-4-4-4-4-4-4-4-4-4-4-4-4---12-12-12-12-12-12-12-12-12--10-10-10-10-10-10-10-|
E:----------------------------------------------------------------------------------------|

:------------------------------------------------------------|
:-12-12-12-12-12-12-12-12------------------------------------|
:-13-13-13-13-13-13-13-13--11-11-11-11-11-11-11-11-----------|
:-13-13-13-13-13-13-13-13--11-11-11-11-11-11-11-11---2--2-2--|
:-11-11-11-11-11-11-11-11--9--9--9--9--9--9--9--9----2--2-2--|
:----------------------------------------------------0--0-0--|

e:--------------------------------------------------------------------------------|
B:---------------------------------------------5-4---4-----------5-4---4----------|
G:----------------------------------------6--------6---------6-------6------------|
D:-6-6-6-6-6--4-4-4-4-4--6-6-6-6-6-6----6---6--------------6---6------------------|
A:-6-6-6-6-6--4-4-4-4-4--6-6-6-6-6-6--4-----------------4----------------4---5-7--|
E:-4-4-4-4-4--2-2-2-2-2--4-4-4-4-4-4----------------------------------------------|

:-------------------------------------------------------------|
:-------------------------------------------------------------|
:--------1----------------1---------------5-------------5-----|
:-2----2----2----2------2----2-----6----6---6----6----6---6---| x 2
:-2--2--------2--2---2---------2---6--6-------6--6--6-------6-|
:-0--------------0-----------------4-------------4------------|


e:------------------------------------------------------------------------|
B:----------3----------------3--------------------------------------------|
G:-----4------4---4------4-----4---4------------3-----------------3-------|
D:---4---4------4------4---4-----4----------4-----4---4-------4-----4---4-|
A:-2-----------------2--------------------4---4-----4-------4---4-----4---|
E:--------------------------------------2-----------------2---------------|

:----------------------------------------------------------------------|
:----------5----------------5------------------------------------------|
:-----6------6---6------6-----6---6-----------5----------------5-------|
:---6---6------6------6---6-----6---------6-----6---6------6-----6---6-|
:-4-----------------4-------------------6---6-----6------6---6-----6---|
:-------------------------------------4----------------4---------------|

e:------------------------------------------------------------------------|
B:----------3----------------3--------------------------------------------|
G:-----4------4---4------4-----4---4------------3-----------------3-------|
D:---4---4------4------4---4-----4----------4-----4---4-------4-----4---4-|
A:-2-----------------2--------------------4---4-----4-------4---4-----4---|
E:--------------------------------------2-----------------2---------------|

:----------------------------------------------------------------------|
:----------5----------------5------------------------------------------|
:-----6------6---6------6-----6---6-----------5----------------5-------|
:---6---6------6------6---6-----6---------6-----6---6------6-----6---6-|
:-4-----------------4-------------------6---6-----6------6---6-----6---|
:-------------------------------------4----------------4---------------|

e:------------------------------------------------------------------------|
B:----------3----------------3--------------------------------------------|
G:-----4------4---4------4-----4---4------------3-----------------3-------|
D:---4---4------4------4---4-----4----------4-----4---4-------4-----4---4-|
A:-2-----------------2--------------------4---4-----4-------4---4-----4---|
E:--------------------------------------2-----------------2---------------|

:----------------------------------------------------------------------|
:----------5----------------5------------------------------------------|
:-----6------6---6------6-----6---6-----------5----------------5-------|
:---6---6------6------6---6-----6---------6-----6---6------6-----6---6-|
:-4-----------------4-------------------6---6-----6------6---6-----6---|
:-------------------------------------4----------------4---------------|


e:-14----14----14----14----14----14----14----14-----10h12p10h12p10h12-10-------------------|
B:----16----16----15----15----14----14----13----13-----------------------12-10-12-10h12p10-|
G:-----------------------------------------------------------------------------------------|
D:-----------------------------------------------------------------------------------------|
A:-----------------------------------------------------------------------------------------|
E:-----------------------------------------------------------------------------------------|

:-----------------------------------------|
:-----------------------------------------|
:-13-12-13--------------------------------|
:-----------------------------------------|
:-----------------------------------------|
:-----------------------------------------|

e:-12--------12--14-------14---15-------15--14-------14-12-------12--10-------10--12-10-9--|
B:--------12-----------14------------15-----------14----------12-----------10--------------|
G:-----12-----------14------------15-----------14----------12-----------10-----------------|
D:-14------------16------------17-----------16----------14-----------12-----------14-12-11-|
A:-----------------------------------------------------------------------------------------|
E:-----------------------------------------------------------------------------------------|

:-5--7------7----12--10--9--10--15------15--14------------|
:---------7--------------------------15------------15-----|
:-------7--------------------------15-----------14----14--|
:-7--9-----------14--12--11-12--17----------16------------|
:---------------------------------------------------------|
:---------------------------------------------------------|

h            
Submit corrections

↑ Back to top | Tablatures and chords for acoustic guitar and electric guitar, ukulele, drums are parodies/interpretations of the original songs. You may use it for private study, scholarship, research or language learning purposes only