Home » K » Kutless »

Kutless - To Know That Youre Alive Tabs

Artists:  A B C D E F G H I J K L M N O P Q R S T U V W X Y Z # 

To Know That Youre Alive Tabs

(ver. 3) Click to play this song!
Kutless
To know that you’re alive from the to know that you’re alive album by Kutless
This song is in the key of C

Tuning:  Guitar 1 is drop C which (from low to high) C-G-C-F-A-D
Guitar 2 is also drop C C-G-C-F-A-D but it has a capo on the second fret

Guitar two (notes are tabbed according to capo, so a 0 on a capo would be 2 on 
the guitar normally)
Verse:
D|---------------------------------------------------------------------------|
A|---------------------------------------------------------------------------|
F|---------------------------------------------------------------------------|
C|---1-0-1---1-0-1---1-0-1---1-0-1---3-0-3---3-0-3-----0-------0-------------| 
G|-3-------3-------3-------3-------2-------2---------5---5---5---5-----------| 
C|-------------------------------------------------5-------5-----------------|

Guitar 1
Pre-chorus
D|-----------------------------------------------------------|
A|-----------------------------------------------------------|
F|----5-5------5-5------------------5-5------5-5-------------|
C|--0------0-0------0-----3/-----0-------0-0------0----3/----|
G|--0------0-0------0------------0-------0-0------0----------|
C|--0------0-0------0------------0-------0-0------0----------|

D|-------------------------------------------------------|
A|-------------------------------------------------------|
F|---5-5------5-5-----------------5-5------5-5-----------|
C|-0------0-0------0----3/-----0-------0-0--0---0----3/--|
G|-0------0-0------0-----------0-------0-0--0---0--------|
C|-0------0-0------0-----------0-------0-0--0---0--------|

Guitar 1
Chorus
D|---------------------------------------------------------------------------|
A|---------------------------------------------------------------------------|
F|---------------------------------5-5-5-5-5-5-5-5---------------------------|
C|-0-0-0-0-0-0-0-0-3-3-3-3-3-3-3-3-5-5-5-5-5-5-5-5-5-5-5-5-5-5-5-5-----------|
G|-0-0-0-0-0-0-0-0-3-3-3-3-3-3-3-3-3-3-3-3-3-3-3-3-5-5-5-5-5-5-5-5-----------|
C|-0-0-0-0-0-0-0-0-3-3-3-3-3-3-3-3-----------------5-5-5-5-5-5-5-5-----------|

Guitar 1
Bridge
D|------------------------------------------------------|
A|------------------------------------------------------|
F|------------------------------------------------------|
C|------------------------------------------------------|
G|------------------------------------------------------|
C|-0--0-0-0--0-0---0-0-0--0-0--0-0-0--3-0-3-5b6---------|

Bridge part 2
D|--------------------------------------------------|
A|--------------------------------------------------|
F|--------------------------------------------------|
C|-0--0-0-0--0-0---0-0-0--0-0--0-0-0---3—5b6--------|
G|-0--0-0-0--0-0---0-0-0--0-0--0-0-0----------------|
C|-0--0-0-0--0-0---0-0-0--0-0--0-0-0----------------|

Verse  x 5
Pre-Chorus x 1
Chorus x 2
Verse x 4
Pre-Chorus x 1
Chorus x 4
Bridge part 1 x 2
Bridge part 2 x 4
Chorus x 4
Bridge part 2 x 4
            
Submit corrections

↑ Back to top | Tablatures and chords for acoustic guitar and electric guitar, ukulele, drums are parodies/interpretations of the original songs. You may use it for private study, scholarship, research or language learning purposes only