» » »

Kutless - To Know That Youre Alive Tabs

Artists:  A B C D E F G H I J K L M N O P Q R S T U V W X Y Z # 

To Know That Youre Alive Tabs

(ver. 2) Click to play this song!
Kutless
 Rating:
4/5 (4 votes)

 To Know That Youre Alive lessons Tabs too difficult? Try these video lessons and learn fast
 
                This tab is a combination of mine(jesus4life23) and hairguitar's. I got his 
permission and I think this will be the most accurate tab for this song.

TUNING (HIGH TO LOW) - D A F C G C

Intro Guitar 1
D|-----------------------------------------------------------------|
A|-----------------------------------------------------------------|
F|-----------------------------------------------------------------| x2
C|---1-0-1---1-0-1---1-0-1---1-0-1---3-0-3---3-0-3-----0-------0---|
G|-3-------3-------3-------3-------2-------2---------5---5---5---5-|
C|-------------------------------------------------5-------5-------|

Guitar 2
D|--------------------------------------|
A|--------------------------------------|
F|--------------------------------------| x2
C|--------------------------------------|
G|-3333333333333333-22222222-555555h6p5-|
C|--------------------------------------|

Verse Guitar 1
D|-----------------------------------------------------------------|
A|-----------------------------------------------------------------|
F|-----------------------------------------------------------------| x2
C|---1-0-1---1-0-1---1-0-1---1-0-1---3-0-3---3-0-3-----0-------0---|
G|-3-------3-------3-------3-------2-------2---------5---5---5---5-|
C|-------------------------------------------------5-------5-------|

Guitar 2
D|--------------------------------------|
A|--------------------------------------|
F|--------------------------------------| x2
C|--------------------------------------|
G|-3333333333333333-22222222-555555h6p5-|
C|--------------------------------------|

Pre-Chorus Both Guitars
D|--------------------------------------------|
A|--------------------------------------------|
F|---5~5~-----5~5~---------5~5~-----5~5~------|
C|-0------0-0------0-3/--0------0-0------0-3/-|
G|-0------0-0------0-----0------0-0------0----|
C|-0------0-0------0-----0------0-0------0----|

Continued
D|---------------------------------------------|
A|---------------------------------------------|
F|---5~5~-----5~5~---------5~5~-----5-5--------|
C|-0------0-0------0-3/--0------0-0--0-0-xx-3/-|
G|-0------0-0------0-----0------0-0--0-0-xx----|
C|-0------0-0------0-----0------0-0--0-0-xx----|

Chorus Guitar 1
D|-----------------------------------------------------------------|
A|-----------------------------------------------------------------|
F|---------------------------------5-5-5-5-5-5-5-5-----------------| x4
C|-0-0-0-0-0-0-0-0-3-3-3-3-3-3-3-3-5-5-5-5-5-5-5-5-5-5-5-5-5-5-5-5-|
G|-0-0-0-0-0-0-0-0-3-3-3-3-3-3-3-3-3-3-3-3-3-3-3-3-5-5-5-5-5-5-5-5-|
C|-0-0-0-0-0-0-0-0-3-3-3-3-3-3-3-3-----------------5-5-5-5-5-5-5-5-|

Guitar 2
D|-------------------------------------------------------------------------|
A|-------------------------------------------------------------------------|
F|-5-5-5-5-5-5-7-8-8-8-8-8-8-8-8-8-3-3-3-3-3-3-3-3-10-10-10-10-10-10-10-10-| x4
C|-5-5-5-5-5-5-7-8-8-8-8-8-8-8-8-8-3-3-3-3-3-3-3-3-10-10-10-10-10-10-10-10-|
G|-3-3-3-3-3-3-5-6-6-6-6-6-6-6-6-6-1-1-1-1-1-1-1-1--8--8--8--8--8--8--8--8-|
C|-------------------------------------------------------------------------|

Verse Guitar 1
D|-----------------------------------------------------------------|
A|-----------------------------------------------------------------|
F|-----------------------------------------------------------------| x2
C|---1-0-1---1-0-1---1-0-1---1-0-1---3-0-3---3-0-3-----0-------0---|
G|-3-------3-------3-------3-------2-------2---------5---5---5---5-|
C|-------------------------------------------------5-------5-------|

Guitar 2
D|--------------------------------------|
A|--------------------------------------|
F|--------------------------------------| x2
C|--------------------------------------|
G|-3333333333333333-22222222-555555h6p5-|
C|--------------------------------------|

Pre-Chorus Both Guitars
D|--------------------------------------------|
A|--------------------------------------------|
F|---5~5~-----5~5~---------5~5~-----5~5~------|
C|-0------0-0------0-3/--0------0-0------0-3/-|
G|-0------0-0------0-----0------0-0------0----|
C|-0------0-0------0-----0------0-0------0----|

Continued
D|---------------------------------------------|
A|---------------------------------------------|
F|---5~5~-----5~5~---------5~5~-----5-5--------|
C|-0------0-0------0-3/--0------0-0--0-0-xx-3/-|
G|-0------0-0------0-----0------0-0--0-0-xx----|
C|-0------0-0------0-----0------0-0--0-0-xx----|

Chorus Guitar 1
D|-----------------------------------------------------------------|
A|-----------------------------------------------------------------|
F|---------------------------------5-5-5-5-5-5-5-5-----------------| x4
C|-0-0-0-0-0-0-0-0-3-3-3-3-3-3-3-3-5-5-5-5-5-5-5-5-5-5-5-5-5-5-5-5-|
G|-0-0-0-0-0-0-0-0-3-3-3-3-3-3-3-3-3-3-3-3-3-3-3-3-5-5-5-5-5-5-5-5-|
C|-0-0-0-0-0-0-0-0-3-3-3-3-3-3-3-3-----------------5-5-5-5-5-5-5-5-|

Guitar 2
D|-------------------------------------------------------------------------|
A|-------------------------------------------------------------------------|
F|-5-5-5-5-5-5-7-8-8-8-8-8-8-8-8-8-3-3-3-3-3-3-3-3-10-10-10-10-10-10-10-10-| x4
C|-5-5-5-5-5-5-7-8-8-8-8-8-8-8-8-8-3-3-3-3-3-3-3-3-10-10-10-10-10-10-10-10-|
G|-3-3-3-3-3-3-5-6-6-6-6-6-6-6-6-6-1-1-1-1-1-1-1-1--8--8--8--8--8--8--8--8-|
C|-------------------------------------------------------------------------|

Bridge Pt. 1 Both Guitars
D|-----------------------------------|
A|-----------------------------------|
F|-----------------------------------| x2
C|-0-000-0-0-000-0-0-000-0-3-0-3-5b6-|
G|-0-000-0-0-000-0-0-000-0-3-0-3-5b6-|
C|-0-000-0-0-000-0-0-000-0-3-0-3-5b6-| 

Bridge Pt. 2 Both Guitars
D|--------------------------------|
A|--------------------------------|
F|--------------------------------| x4
C|-0-xx-0-0-xx-0-0-xx-0-----------|
G|-0-xx-0-0-xx-0-0-xx-0-9-11b12~~-|
C|-0-xx-0-0-xx-0-0-xx-0-----------|

Chorus Guitar 1
D|-----------------------------------------------------------------|
A|-----------------------------------------------------------------|
F|---------------------------------5-5-5-5-5-5-5-5-----------------| x4
C|-0-0-0-0-0-0-0-0-3-3-3-3-3-3-3-3-5-5-5-5-5-5-5-5-5-5-5-5-5-5-5-5-|
G|-0-0-0-0-0-0-0-0-3-3-3-3-3-3-3-3-3-3-3-3-3-3-3-3-5-5-5-5-5-5-5-5-|
C|-0-0-0-0-0-0-0-0-3-3-3-3-3-3-3-3-----------------5-5-5-5-5-5-5-5-|

Guitar 2
D|-------------------------------------------------------------------------|
A|-------------------------------------------------------------------------|
F|-5-5-5-5-5-5-7-8-8-8-8-8-8-8-8-8-3-3-3-3-3-3-3-3-10-10-10-10-10-10-10-10-| x4
C|-5-5-5-5-5-5-7-8-8-8-8-8-8-8-8-8-3-3-3-3-3-3-3-3-10-10-10-10-10-10-10-10-|
G|-3-3-3-3-3-3-5-6-6-6-6-6-6-6-6-6-1-1-1-1-1-1-1-1--8--8--8--8--8--8--8--8-|
C|-------------------------------------------------------------------------|

Ending Both Guitars
D|-------------------------------|---------------------------------|
A|-------------------------------|---------------------------------|
F|-------------------------------|---------------------------------|
C|-0-xx-0-0-xx-0-0-xx-0----------|-0-xx-0-0-xx-0-0-xx-0------------|
G|-0-xx-0-0-xx-0-0-xx-0-9-11b12~-|-0-xx-0-0-xx-0-0-xx-0-999-11b12~-|
C|-0-xx-0-0-xx-0-0-xx-0----------|-0-xx-0-0-xx-0-0-xx-0------------|

D|-------------------------------|-----------------|
A|-------------------------------|-----------------|
F|-------------------------------|-----------------|
C|-0-xx-0-0-xx-0-0-xx-0----------|-0-xx-0-0-xx-0-0-|
G|-0-xx-0-0-xx-0-0-xx-0-9-11b12~-|-0-xx-0-0-xx-0-0-|
C|-0-xx-0-0-xx-0-0-xx-0----------|-0-xx-0-0-xx-0-0-|
            
Submit corrections


        To Know That Youre Alive lessons Hard to play? Try these video lessons and learn fast To Know That Youre Alive lessons
        
↑ Back to top | Tablatures and chords for acoustic guitar and electric guitar, ukulele, drums are parodies/interpretations of the original songs. You may use it for private study, scholarship, research or language learning purposes only