» » »

Kutless - Shut Me Out Tabs

Artists:  A B C D E F G H I J K L M N O P Q R S T U V W X Y Z # 

Shut Me Out Tabs

(ver. 3) Click to play this song!
Kutless
 Rating:
4/5 (4 votes)

 Shut Me Out lessons Tabs too difficult? Try these video lessons and learn fast
 
                Band:   Kutless

Unfortunately I didn't get to work with Ryan Shrout on this song like I did
with Beyond the Surface and Your Touch, but I know the song really well.
Enjoy and God bless.
Key:
h    = Hammer on
p    = Pull off
r    = Release bend
^    = Half step bend
/    = Quick slide up
\    = Slide down
~    = Vibrato
PM.. = Palm mute
X    = Muted string

Tuning: Drop Db

INTRO:
eb|--------------|      eb|-----------|
Bb|--------------|      Bb|-----------|
Gb|--------------|      Gb|-----------|
Db|0-h12\---5h73~| x3   Db|8888-00-10\|
Ab|0-h12\-0h5h73~|      Ab|8888-00-10\|
Db|0-h12\-0h5h73~|      Db|8888-00-10\|
                        PM      ..

eb|---------------|      eb|-----------|
Bb|---------------|      Bb|-----------|
Gb|---------------|      Gb|-----------|
Db|0-h12\---5h7p3~| x3   Db|8888-00-10\|
Ab|0-h12\-0h5h7p3~|      Ab|8888-00-10\|
Db|0-h12\-0h5h7p3~|      Db|8888-00-10\|
                         PM      ..

VERSE 1:
eb|--------|---------|--------|--------|
Bb|--------|---------|--------|--------|
Gb|--------|---------|--------|--------|
Db|0-------|10-------|5-------|0-------|
Ab|0-x16---|10-x16---|5-x16---|0-x16---|
Db|0-------|10-------|5-------|0-------|
PM .        .         .        .

|Gtr. 2
|eb|---------|----------|---------|--------|
|Bb|---------|----------|---------|--------|
|Gb|---------|----------|---------|--------|
|Db|0--------|10--------|5--------|0-------|
|Ab|0--x16---|10--x16---|5--x16---|0--x8---|
|Db|0--------|10--------|5--------|0-------|
|PM .         .          .         .
|
|Gtr. 1
|eb|---------|----------|---------|----------|----------|
|Bb|10-------|----------|10-------|----------|----------|
|Gb|---------|----9h10--|---------|----9h10--|9---------|
|Db|---------|----------|---------|----------|----------|
|Ab|---------|----------|---------|----------|----------|
|Db|---------|----------|---------|----------|----------|
|
|Gtr. 1 (cont.)
|eb|----------|---------|
|Bb|----9h10--|9--------|
|Gb|----------|---------|
|Db|----------|---------|
|Ab|----------|---------|
|Db|----------|---------|

BRIDGE:
|Gtr. 1
|eb|---------|--------|--------|--------|--------|-------|
|Bb|---------|--------|--------|--------|--------|-------|
|Gb|77799910-|--------|--------|--------|--------|-------|
|Db|XXXXXXX--|555\----|--------|000-----|--------|555\---|
|Ab|5557778--|555\----|--------|000-----|--------|555\---|
|Db|---------|555\----|--------|000-----|--------|555\---|
|
|Gtr. 2
|eb|--------|--------|--------|--------|--------|--------|
|Bb|--------|--------|--------|--------|--------|--------|
|Gb|--------|--------|--------|--------|--------|--------|
|Db|0002223-|555\----|--------|000-----|--------|555\----|
|Ab|0002223-|555\----|--------|000-----|--------|555\----|
|Db|0002223-|555\----|--------|000-----|--------|555\----|

Both guitars
eb|--------|--------|--------|
Bb|--------|--------|--------|
Gb|--------|--------|--------|
Db|--------|10------|-----12\|
Ab|--------|10------|-----12\|
Db|--------|10------|-----12\|

CHORUS:
eb|---------------|      eb|-----------|
Bb|---------------|      Bb|-----------|
Gb|---------------|      Gb|-----------|
Db|0--h12\---5h73~| x3   Db|8888-00-10\|
Ab|0--h12\-0h5h73~|      Ab|8888-00-10\|
Db|0--h12\-0h5h73~|      Db|8888-00-10\|
                         PM      ..

eb|---------------|      eb|-----------|
Bb|---------------|      Bb|-----------|
Gb|---------------|      Gb|-----------|
Db|0--h12\---5h73~| x3   Db|8888-00-10\|
Ab|0--h12\-0h5h73~|      Ab|8888-00-10\|
Db|0--h12\-0h5h73~|      Db|8888-00-10\|
                         PM      ..

VERSE 2:
Gtr. 2
eb|-----------------------------|
Bb|-----------------------------|
Gb|-----------------------------|
Db|0------10------5------0------|
Ab|0-x16--10-x16--5-x16--0-x16--|
Db|0------10------5------0------|
PM .      .       .      .

Gtr. 1
eb|---------|----------|---------|----------|----------|
Bb|10-------|----------|10-------|----------|----------|
Gb|---------|----9h10--|---------|----9h10--|9---------|
Db|---------|----------|---------|----------|----------|
Ab|---------|----------|---------|----------|----------|
Db|---------|----------|---------|----------|----------|

Gtr. 1 (cont.)
eb|---------|--------|--------|---------|----------|---------|----------|
Bb|---------|--------|--------|10-------|----------|10-------|----------|
Gb|----9h10-|9-------|--------|-----7---|----9h10--|-----7---|----9h10--|
Db|---------|--------|--------|---------|----------|---------|----------|
Ab|---------|--------|--------|---------|----------|---------|----------|
Db|---------|--------|--------|---------|----------|---------|----------|

Gtr. 1 (cont.)
eb|--------|----------|--------|
Bb|--------|----------|--------|
Gb|9-------|----9h10--|9---7---|
Db|----7---|----------|--------|
Ab|--------|----------|--------|
Db|--------|----------|--------|

BRIDGE:
|Gtr. 1
|eb|---------|--------|--------|--------|--------|-------|
|Bb|---------|--------|--------|--------|--------|-------|
|Gb|77799910-|--------|--------|--------|--------|-------|
|Db|XXXXXXX--|555\----|--------|000-----|--------|555\---|
|Ab|5557778--|555\----|--------|000-----|--------|555\---|
|Db|---------|555\----|--------|000-----|--------|555\---|
|
|Gtr. 2
|eb|--------|--------|--------|--------|--------|--------|
|Bb|--------|--------|--------|--------|--------|--------|
|Gb|--------|--------|--------|--------|--------|--------|
|Db|0002223-|555\----|--------|000-----|--------|555\----|
|Ab|0002223-|555\----|--------|000-----|--------|555\----|
|Db|0002223-|555\----|--------|000-----|--------|555\----|

Both guitars
eb|--------|--------|--------|
Bb|--------|--------|--------|
Gb|--------|--------|--------|
Db|--------|10------|-----12\|
Ab|--------|10------|-----12\|
Db|--------|10------|-----12\|

CHORUS:
eb|---------------|      eb|-----------|
Bb|---------------|      Bb|-----------|
Gb|---------------|      Gb|-----------|
Db|0--h12\---5h73~| x3   Db|8888-00-10\|
Ab|0--h12\-0h5h73~|      Ab|8888-00-10\|
Db|0--h12\-0h5h73~|      Db|8888-00-10\|
                         PM      ..

eb|---------------|      eb|----------|----------|
Bb|---------------|      Bb|----------|----------|
Gb|---------------|      Gb|----------|----------|
Db|0--h12\---5h73~| x3   Db|8888-0010\|0010\0010\|
Ab|0--h12\-0h5h73~|      Ab|8888-0010\|0010\0010\|
Db|0--h12\-0h5h73~|      Db|8888-0010\|0010\0010\|
                         PM      ..    ..   ..

GUITAR SOLO:
Gtr. 1
eb|-----------|-------------|---------|-----------|17--15-----|
Bb|-----------|-----------15|---------|18--17--15-|--------18-|
Gb|10------12/|14---141214--|14-------|-----------|-----------|
Db|-----------|-------------|---------|-----------|-----------|
Ab|-----------|-------------|---------|-----------|-----------|
Db|-----------|-------------|---------|-----------|-----------|


eb|-----------|---------|--------|13131312121215-15/|17-------|--------|
Bb|15--20--18-|17^r^r^r^|r~~~~~--|X-X-X-X-X-X-X--X--|X--------|--------|
Gb|-----------|---------|--------|1010109-9-9-12-12/|14-------|--------|
Db|-----------|---------|--------|------------------|---------|-----12\|
Ab|-----------|---------|--------|------------------|---------|-----12\|
Db|-----------|---------|--------|------------------|---------|-----12\|

Gtr. 2
eb|--------|--------|--------|----------|--------|--------|
Bb|--------|--------|--------|----------|--------|--------|
Gb|--------|--------|--------|----------|--------|--------|
Db|88888888|88888888|00000000|5557771010|88888888|88888888|
Ab|88888888|88888888|00000000|5557771010|88888888|88888888|
Db|88888888|88888888|00000000|5557771010|88888888|88888888|

eb|--------|----------|--------|--------|---------|
Bb|--------|----------|--------|--------|---------|
Gb|--------|----------|--------|--------|---------|
Db|00000000|5557771010|8887773-|0-------|------12\|
Ab|00000000|5557771010|8887773-|0-------|------12\|
Db|00000000|5557771010|8887773-|0-------|------12\|

OUTRO/CHORUS:
eb|--------------|      eb|-----------|
Bb|--------------|      Bb|-----------|
Gb|--------------|      Gb|-----------|
Db|0-h12\---5h73~| x3   Db|8888-00-10\|
Ab|0-h12\-0h5h73~|      Ab|8888-00-10\|
Db|0-h12\-0h5h73~|      Db|8888-00-10\|
                        PM      ..

eb|---------------|      eb|-----------|
Bb|---------------|      Bb|-----------|
Gb|---------------|      Gb|-----------|
Db|0-h12\---5h7p3~| x3   Db|8888-00-10\|
Ab|0-h12\-0h5h7p3~|      Ab|8888-00-10\|
Db|0-h12\-0h5h7p3~|      Db|8888-00-10\|
                         PM      ..

eb|---------------|      eb|-----------|
Bb|---------------|      Bb|-----------|
Gb|---------------|      Gb|-----------|
Db|00-h12\---5h73~| x3   Db|8888-00-10\|
Ab|00-h12\-0h5h73~|      Ab|8888-00-10\|
Db|00-h12\-0h5h73~|      Db|8888-00-10\|
                         PM      ..

eb|---------------|      eb|----------|----------|--------|
Bb|---------------|      Bb|----------|----------|--------|
Gb|---------------|      Gb|----------|----------|--------|
Db|00-h12\---5h73~| x3   Db|8888-0010\|0010\0010\|0-------|
Ab|00-h12\-0h5h73~|      Ab|8888-0010\|0010\0010\|0-------|
Db|00-h12\-0h5h73~|      Db|8888-0010\|0010\0010\|0-------|
                         PM      ..    ..   ..
            
Submit corrections


        Shut Me Out lessons Hard to play? Try these video lessons and learn fast Shut Me Out lessons
        
↑ Back to top | Tablatures and chords for acoustic guitar and electric guitar, ukulele, drums are parodies/interpretations of the original songs. You may use it for private study, scholarship, research or language learning purposes only