» » »

Kutless - Shut Me Out Tabs

Artists:  A B C D E F G H I J K L M N O P Q R S T U V W X Y Z # 

Shut Me Out Tabs

(ver. 1) Click to play this song!
Kutless
 Rating:
4/5 (4 votes)

 Shut Me Out lessons Tabs too difficult? Try these video lessons and learn fast
 
                 ~by Taylor (tbro_10)


TUNING-C#G#C#F#A#d#
_____________________________
key                          |
pm       - palm mute         |
ph       - pinch harmonics   |
~        - hold note out     |
x        - dead note         |
b        - bend              |
h        - hammer            |
p        - pull              |
*        - harmonics         |
A        - Arpeggiate*       |
/        - slide up          |
\        - slide down        |
(cont.)  - continued         |
X\\\\\\  - pick scr*pe       |
T        - Tremolo Picking** |
>        - To Be Continued   |
_____________________________|


Intro-Distortion

d#-------------------------------------------------------------------------------------|
A#-------------------------------------------------------------------------------------|
F#-------------------------------------------------------------------------------------|
C#---0--12\--3-5-7-3~--0--12\--3-5-7-3~--0--12\--3-5-7-3~--8-8-8-8--0-0--10\\----------|
G#---0--12\--3-5-7-3~--0--12\--3-5-7-3~--0--12\--3-5-7-3~--8-8-8-8--0-0--10\\----------|
C#---0--12\--3-5-7-3~--0--12\--3-5-7-3~--0--12\--3-5-7-3~--8-8-8-8--0-0--10\\----------| x2
                                                                 pm * *
VERSE                                                                   ___
d#------------------------------------------------------------------| |
A#------------------------------------------------------------------| |
F#------------------------------------------------------------------| |
C#------------------------------------------------------------------| |
G#---0000-0000-0000-0000--10101010-10101010-10101010-10101010-------| |
C#---0000-0000-0000-0000--10101010-10101010-10101010-10101010-------| |
   pm**** **** **** ****  * * * *  * * * *  * * * *  * * * *          |
                                                                      |--2x
d#----------------------------------------------------|               |
A#----------------------------------------------------|               |
F#----------------------------------1st x only--------|               |
C#----------------------------------|--------|--------|               |
G#---5555-5555-5555-5555--0000-0000-0000-0000---------|               |
C#---5555-5555-5555-5555--0000-0000-0000-0000---------|               |
   pm**** **** **** ****  **** **** **** ****        _________________|

BRIDGE
d#-------------------------------------------------------------|
A#-------------------------------------------------------------|
F#-------------------------------------------------------------|
C#---12p-0-0-3-3-3-5-5---5-5-5----0-0-0----5-5-5---10~---------|
G#---12p-0-0-3-3-3-5-5---5-5-5----0-0-0----5-5-5---10~---------|
C#---12p-0-0-3-3-3-5-5---5-5-5----0-0-0----5-5-5---10~---------|

d#-------------------------------------------------------------------------------------|
A#-------------------------------------------------------------------------------------|
F#-------------------------------------------------------------------------------------|
C#---0--12\--3-5-7-3~--0--12\--3-5-7-3~--0--12\--3-5-7-3~--8-8-8-8--0-0--10\\----------|
G#---0--12\--3-5-7-3~--0--12\--3-5-7-3~--0--12\--3-5-7-3~--8-8-8-8--0-0--10\\----------|
C#---0--12\--3-5-7-3~--0--12\--3-5-7-3~--0--12\--3-5-7-3~--8-8-8-8--0-0--10\\----------| x2
                                                                  pm* *
VERSE                                                                  ____
d#------------------------------------------------------------------| |
A#------------------------------------------------------------------| |
F#------------------------------------------------------------------| |
C#------------------------------------------------------------------| |
G#---0000-0000-0000-0000--10101010-10101010-10101010-10101010-------| |
C#---0000-0000-0000-0000--10101010-10101010-10101010-10101010-------| |
   pm**** **** **** ****  * * * *  * * * *  * * * *  * * * *          |
                                                                      |--2x
d#----------------------------------------------------|               |
A#----------------------------------------------------|               |
F#----------------------------------1st x only--------|               |
C#----------------------------------|--------|--------|               |
G#---5555-5555-5555-5555--0000-0000-0000-0000---------|               |
C#---5555-5555-5555-5555--0000-0000-0000-0000---------|               |
   pm**** **** **** ****  **** **** **** ****        _________________|

BRIDGE
d#-------------------------------------------------------------|
A#-------------------------------------------------------------|
F#-------------------------------------------------------------|
C#---12p-0-0-3-3-3-5-5---5-5-5----0-0-0----5-5-5---10~---------|
G#---12p-0-0-3-3-3-5-5---5-5-5----0-0-0----5-5-5---10~---------|
C#---12p-0-0-3-3-3-5-5---5-5-5----0-0-0----5-5-5---10~---------|

d#-------------------------------------------------------------------------------------|
A#-------------------------------------------------------------------------------------|
F#-------------------------------------------------------------------------------------|
C#---0--12\--3-5-7-3~--0--12\--3-5-7-3~--0--12\--3-5-7-3~--8-8-8-8--0-0--10\\----------|
G#---0--12\--3-5-7-3~--0--12\--3-5-7-3~--0--12\--3-5-7-3~--8-8-8-8--0-0--10\\----------|
C#---0--12\--3-5-7-3~--0--12\--3-5-7-3~--0--12\--3-5-7-3~--8-8-8-8--0-0--10\\----------| x2
                                                                  pm* *

d#-----------------------------|
A#-----------------------------|
F#-----------------------------|
C#---0-0--10\\---0-0--10\\-----|
G#---0-0--10\\---0-0--10\\-----|
C#---0-0--10\\---0-0--10\\-----|
   pm* *         * *

Solo-Lead

d#----------------------------13-12-10~------------------------|
A#-----------10----10----10~------------10-8------8------------|
F#---10~--12----12----12---------------------10-7---10---------|
C#-------------------------------------------------------------|
G#-------------------------------------------------------------|
C#-------------------------------------------------------------|

d#-------------------------------------------------------------|
A#-------------------------------------------------------------|
F#---9h10p9h10p9h10p9h10p9-------------------------------------|
C#-------------------------------------------------------------|
G#-------------------------------------------------------------|
C#-------------------------------------------------------------|

Rythym-Under Solo

d#-------------------------------------------------------------|
A#-------------------------------------------------------------|
F#-------------------------------------------------------------|
C#---8888-8888-8888-8888--0000-0000--333-555-1010--------------|
G#---8888-8888-8888-8888--0000-0000--333-555-1010--------------|
C#---8888-8888-8888-8888--0000-0000--333-555-1010--------------| x2

d#-------------------------|
A#-------------------------|
F#-------------------------|
C#---101010-777-33-0~------|
G#---101010-777-33-0~------|
C#---101010-777-33-0~------|

Chorus
d#-------------------------------------------------------------------------------------|
A#-------------------------------------------------------------------------------------|
F#-------------------------------------------------------------------------------------|
C#---0--12\--3-5-7-3~--0--12\--3-5-7-3~--0--12\--3-5-7-3~--8-8-8-8--0-0--10\\----------|
G#---0--12\--3-5-7-3~--0--12\--3-5-7-3~--0--12\--3-5-7-3~--8-8-8-8--0-0--10\\----------|
C#---0--12\--3-5-7-3~--0--12\--3-5-7-3~--0--12\--3-5-7-3~--8-8-8-8--0-0--10\\----------| x4
                                                                  pm* *
OUTRO
d#-------------------------------|
A#-------------------------------|
F#-------------------------------|
C#---0-0--10\\---0-0--10\\---0~--|
G#---0-0--10\\---0-0--10\\---0~--|
C#---0-0--10\\---0-0--10\\---0~--|
   pm* *         * *         ^-last note
            
Submit corrections


        Shut Me Out lessons Hard to play? Try these video lessons and learn fast Shut Me Out lessons
        
↑ Back to top | Tablatures and chords for acoustic guitar and electric guitar, ukulele, drums are parodies/interpretations of the original songs. You may use it for private study, scholarship, research or language learning purposes only