Home » K » Kt Tunstall »

Kt Tunstall - Suddenly I See Bass

Artists:  A B C D E F G H I J K L M N O P Q R S T U V W X Y Z # 

Suddenly I See Bass

(ver. 3) Click to play this song!
Kt Tunstall
 Rating:
4/5 (4 votes)
                
I think this is the song, correct.
You might not notice it, but in the bridge, there is played something different. It 
sound strange but it is the correct tab.
Standard tuning (EADG)
The rythem-thingy may not be correct, but you can hear it very good on the song.

Index:
~ | Let it ring

Main
|------------------|
|------------------|
|-5~-3~-5~-33-0----|
|---------------3~-|

Chorus
|------------------|------------------|
|------------------|------------------|
|-2-2--------55-5--|-2-2--------33-3--|
|----22-2-3-3------|----22-2-3-3------|

Bridge
|----------------|----------------|
|----------------|----------------|
|--5~----5~------|--5~----5~----3-|
|-----1~----11-3-|-----1~----11---|

Bridge 2
|---------------|-----------------|
|---------------|-----------------|
|--5~----5~-----|--5~----5~---532-|
|-----1~----1-3-|-----1~----1-----|

How to play:
Main     x5 (after 3 she starts singing)
Nothing (Pre-chorus)
Chorus   x2
Main     x4 (after 2 she starts singing)
Nothing (Pre-chorus)
Chorus   x2
Bridge   x3
Bridge 2 x1
Chorus   x5
            
Submit corrections

↑ Back to top | Tablatures and chords for acoustic guitar and electric guitar, ukulele, drums are parodies/interpretations of the original songs. You may use it for private study, scholarship, research or language learning purposes only