Home » K » Kt Tunstall »

Kt Tunstall - Suddenly I See Bass

Artists:  A B C D E F G H I J K L M N O P Q R S T U V W X Y Z # 

Suddenly I See Bass

(ver. 2) Click to play this song!
Kt Tunstall
 Rating:
4/5 (4 votes)
                
SUDDENLY I SEE (Bassline)
As recorded by KT Tunstall

	

Words and Music by Katie Tunstall

Gtr I (E A D G) - 'Picked Bass'

 Intro
  Moderately Q=100(16=s16)
                                  $
 4/4
  Gtr I
  H    H      Q.   S S S S S S Q      H    H      Q.   S S S S S S Q
|-----------|---------------------||------------|------------------------||
|-----------|---------------------||o-----------|-----------------------o||
|-5----3----|-5----x-3---3---0----||o-5----3----|-5----x-3---3---0------o||
|-----------|------------------3--||------------|------------------3-----||


 Verse
  H    H      Q.   S S S S S S Q    H    H      Q.   S S S S S S Q
|-----------|---------------------|-----------|---------------------||
|-----------|---------------------|-----------|---------------------||
|-5----3----|-5----x-3---3---0----|-5----3----|-5----x-3---3---0----||
|-----------|------------------3--|-----------|------------------3--||


 Pre-Chorus
  Wx7
|--------||
|--------||
|--------||
|--------||


 Chorus
  $$
  Q  Q   S S S S S S E    E. S Q    S  S  S  S  Q
|-----------------------|---------------------------|
|-----------------------|---------------------------|
|-2--2--/9-9-9-9-9-9-9\-|---------------------------|
|-----------------------|-3--3-3--/10-10-10-10-10\--|


  E E S S E  S S S S S S E    Q  S E.  E E S E.
|---------------------------|-------------------|
|---------------------------|-------------------|
|-2-2-2-2-2-/9-9-9-9-9-9-9\-|-------------------|
|---------------------------|-3--3-3--/8-8-8-8\-|


                                                                      D.S.
                                                                      D.S.
  E S S E E E E E. S    Q  Q    E  E  Q     Q  S E.  S S S S Q     H    H
|---------------------|-------------------|----------------------|------------||
|---------------------|-------------------|----------------------|------------||
|-2-2-2-2-2S9-9-9--9\-|-------------------|-2--2-2--/9-9-9-9-9\--|------3-----||
|---------------------|-3--3--/10-10-10\--|----------------------|-3----------||


 Bridge
  H    H      Q.   S S S S S S Q    H    H      Q.   S S S S S S Q
|-----------|---------------------|-----------|---------------------|
|-----------|---------------------|-----------|---------------------|
|-5----3----|-5----x-3---3---0----|-5----3----|-5----x-3---3---0----|
|-----------|------------------3--|-----------|------------------3--|


  H    H      Q.   S S S S S S Q    H    H      Q.   S S S S S S Q
|-----------|---------------------|-----------|---------------------|
|-----------|---------------------|-----------|---------------------|
|-5----3----|-5----x-3---3---0----|-5----3----|-5----x-3---3---0----|
|-----------|------------------3--|-----------|------------------3--|


  H    H      Q.   S S S S S S Q    H    H      Q.   S S S S S S Q
|-----------|---------------------|-----------|---------------------|
|-----------|---------------------|-----------|---------------------|
|-5----3----|-5----x-3---3---0----|-5----3----|-5----x-3---3---0----|
|-----------|------------------3--|-----------|------------------3--|


                                                     D.S.S. al Coda
  H    H      Q.   S S S S S S Q    H    H      Q.   S S S S S S Q
|-----------|---------------------|-----------|---------------------|
|-----------|---------------------|-----------|---------------------|
|-5----3----|-5----x-3---3---0----|-5----3----|-5----x-3---3---0----|
|-----------|------------------3--|-----------|------------------3--|


 Outro
  &
  Q  Q   S S S S S S E    E. S Q    S  S  S  S  Q
|-----------------------|---------------------------|
|-----------------------|---------------------------|
|-2--2--/9-9-9-9-9-9-9\-|---------------------------|
|-----------------------|-3--3-3--/10-10-10-10-10\--|


  E E S S E  S S S S S S E    Q  S E.  E E S E.
|---------------------------|-------------------|
|---------------------------|-------------------|
|-2-2-2-2-2-/9-9-9-9-9-9-9\-|-------------------|
|---------------------------|-3--3-3--/8-8-8-8\-|


  Q  E E E E Q     E S S Q    E  E  Q
|----------------|----------------------|
|----------------|----------------------|
|-2--2-2S9-9-9\--|----------------------|
|----------------|-3-3-3-3--/10-10-10\--|


  E S S E +E  E E Q     Q.   +E  H       W
|---------------------|---------------|-------*|
|---------------------|---------------|-------*|
|-2-2-2-2-(2)S9-9-9\--|---------------|-------*|
|---------------------|-3----(3)S8----|-10----*|



Duration Legend
---------------
W - whole; H - half; Q - quarter; E - 8th; S - 16th; T - 32nd; X - 64th; a - acciaccatura
+ - note tied to previous; . - note dotted; .. - note double dotted
Uncapitalized letters represent notes that are staccato (1/2 duration)
Irregular groupings are notated above the duration line
Duration letters will always appear directly above the note/fret number it represents the
duration for.  Duration letters with no fret number below them represent rests.  Multi-
bar rests are notated in the form Wxn, where n is the number of bars to rest for.  Low
melody durations appear below the staff

Tablature Legend
----------------
 h   - hammer-on
 p   - pull-off
 b   - bend
 pb  - pre-bend
 r   - bend release (if no number after the r, then release immediately)
 /\  - slide into or out of (from/to "nowhere")
 s   - legato slide
 S   - shift slide
 - natural harmonic
[n]  - artificial harmonic
n(n) - tapped harmonic
 ~   - vibrato
 tr  - trill
 T   - tap
 TP  - trem. picking
 PM  - palm muting
\n/  - tremolo bar dip; n = amount to dip
 \n  - tremolo bar down
 n/  - tremolo bar up
/n\  - tremolo bar inverted dip
 =   - hold bend; also acts as connecting device for hammers/pulls
 <> - volume swell (louder/softer)
 x   - on rhythm slash represents muted slash
 o   - on rhythm slash represents single note slash

Misc Legend
-----------
 |  - bar
||  - double bar
||o - repeat start
o|| - repeat end
*|  - double bar (ending)
 :  - bar (freetime)
 $  - Segno
 &  - Coda
Tempo markers -  = BPM(8/16=s8/s16), where s8 = swing 8ths, s16 = swing 16ths
            
Submit corrections

↑ Back to top | Tablatures and chords for acoustic guitar and electric guitar, ukulele, drums are parodies/interpretations of the original songs. You may use it for private study, scholarship, research or language learning purposes only