» » »

Kottke Leo - Brain Of Purple Tabs

Artists:  A B C D E F G H I J K L M N O P Q R S T U V W X Y Z # 

Brain Of Purple Tabs

(ver. 2) Click to play this song!
Kottke Leo
 Rating:
4/5 (4 votes)

 Brain Of Purple lessons Tabs too difficult? Try these video lessons and learn fast
 
                Lines: 51


-- 
 Requested a while back.  I've lost track of the good fellow's name 
 who I got the tab from ... sorry!  But, hey, it's all Leo's, right? (:

 -- 
 Robert Minato
 Willamette University

I tried the first section for fifteen minutes last night and came out 
with something slightly different. Leo's guitar is tuned C#G#EBF#C#, 
i.e. 1 1/2 steps down, as he usually does on a 12 strings, but chord
names (or rather hand positions) below are given relatively to standard 
tuning.
Unfortunately I don't have a 12 string to test my own tab and feel whether
my fingering is correct.


 Brain of Purple Mountain (Leo Kottke)
 from "6 & 12 string guitar"

      C VIII                                    F
E||--------8---------8---|------------------|-------1---------|
B||-7/8--------12-10-----|--8--------8----8-|-----------0-----|
G||-----9----9---------9-|-----10-9----9----|-----2---2---2---|
D||----------------------|------------------|-------3-------3-|
A||------------10--------|-10-------10------|-----------------|
E||----------------------|------------------|-0h1-------1-----|
      |_|  |_|  |_|  |_|    |   |_|  |_|  |     |_| |_| |_| |

   G        C        G       Am       D7       F         G       C
|--------------0---|---0-----------|-------------------|-------------0-3-|
|------------------|-3-----3---1---|-------1-------1---|-0-3---1---------|
|----------------0-|---------------|-0h2-2---0h2-2---2-|-----------2-----|
|-------0-2----2---|-----0-------2-|-------0-------3---|-----0-------2---|
|-----2-----3------|-2-------0-----|-------------------|---------3-------|
|-0h3--------------|---------------|---2-------1-------|-3---------------|
    |_| |_| |  |_|   |_| |_| |_| |     |_| |_| |_| |_|   |_| |_| |_| |_|

  G
|---------||
|---------||
|---------||
|---------||
|---------||
|-3-------||
            
Submit corrections


        Brain Of Purple lessons Hard to play? Try these video lessons and learn fast Brain Of Purple lessons
        
↑ Back to top | Tablatures and chords for acoustic guitar and electric guitar, ukulele, drums are parodies/interpretations of the original songs. You may use it for private study, scholarship, research or language learning purposes only