Home » K » Korpiklaani »

Korpiklaani - VäKirauta Bass

Artists:  A B C D E F G H I J K L M N O P Q R S T U V W X Y Z # 

VäKirauta Bass

(ver. 1) Click to play this song!
Korpiklaani
  Väkirauta

Tuning - DADG

intro: (bass comes in at 0:11 sec)
G|-----------------------------------------------------------------|
D|-----------------------------------------------------------------|
A|-----------------------------------------------------------------|
D|-0-0-8-7-5-7-0-0-0-0-8-7-5-7-0-0-0-0-8-7-5-7-0-0-3-3-3-3-3-3-2-0-| 2x

Verse Riff:
|-------------------------------------|
|-------------------------------------|
|-------------------33330000----------|
|-00000000-33333333----------35320000-| 4x

Chorus Riff:
|-----------------------------------------------------------------|
|-----------------------------------------------------------------|
|-----------------------------------------------------------------|
|-0-0-8-7-5-7-0-0-0-0-8-7-5-7-0-0-0-0-8-7-5-7-0-0-3-3-3-3-3-3-2-0-| 4x

Break, drum solo

Verse Riff:
|-------------------------------------|
|-------------------------------------|
|-------------------33330000----------|
|-00000000-33333333----------35320000-| 4x

Chorus Riff:
|-----------------------------------------------------------------|
|-----------------------------------------------------------------|
|-----------------------------------------------------------------|
|-0-0-8-7-5-7-0-0-0-0-8-7-5-7-0-0-0-0-8-7-5-7-0-0-3-3-3-3-3-3-2-0-| 4x

Also play this riff 4 times again during the very noisy solo part after the chorus.

Verse Riff:
|-------------------------------------|
|-------------------------------------|
|-------------------33330000----------|
|-00000000-33333333----------35320000-| 4x

Last Chorus:
|-----------------------------------------------------------------|
|-----------------------------------------------------------------|
|-----------------------------------------------------------------|
|-0-0-8-7-5-7-0-0-0-0-8-7-5-7-0-0-0-0-8-7-5-7-0-0-3-3-3-3-3-3-2-0-| 4x

And to end, play the Verse riff once more.

The End! All hail the Forest Clan!
            
Submit corrections

↑ Back to top | Tablatures and chords for acoustic guitar and electric guitar, ukulele, drums are parodies/interpretations of the original songs. You may use it for private study, scholarship, research or language learning purposes only