Home » K » Kool And The Gang »

Kool And The Gang - Jungle Boogie Bass

Artists:  A B C D E F G H I J K L M N O P Q R S T U V W X Y Z # 

Jungle Boogie Bass

(ver. 3) Click to play this song!
Kool And The Gang
Tuning: Standard

 Intro
|----------------|
|----------------|
|----------------|
|----------------| x8
 1 + 2 + 3 + 4 +
 
 Verse - "AHHHHHHHHHHH"
|----------------|----------------|3-30-02-3---0---|----------------|
|----------------|--------3---4---|---------------4|--3--0----------|
|---1--------1--3|--4--5----------|----------------|--------4---3---| 
|3-3--31--3------|----------------|----------------|----------------| x2
 1 + 2 + 3 + 4 +  1 + 2 + 3 + 4 +  1 + 2 + 3 + 4 +  1 + 2 + 3 + 4 +
 
 Chorus 1 - "Jungle Boogie"
|----------------|----------------|
|----------32----|----------------|
|----------------|----------------|
|3--3--3---------|3--3--3---3-3---| x4
 1 + 2 + 3 + 4 +  1 + 2 + 3 + 4 +  
 
 Verse x2
                   _______________                   _______________
 Chorus 2         |            1,3                  |            2,4
|----------------|----------------|                |----------------|
|----------32----|----------------|                |----------5-5---|
|----------------|----------------|                |----------------|
|3--3--3-------2-|3--3--3---3-3---|                |3--3--3---------| x4
 1 + 2 + 3 + 4 +  1 + 2 + 3 + 4 +                   1 + 2 + 3 + 4 +  
 
 "Get Down, Get Down"
|----------------|----------------|
|----------------|--------------32|
|----------------|----------------|
|3---------------|----------------| x1
 1 + 2 + 3 + 4 +  1 + 2 + 3 + 4 +  
 
|----------------|----------------|----------------|----------------|
|----------------|--------------32|----------------|----------------|
|----------------|----------------|----------------|----------------|
|3--3--3---------|3--3--3---------|3--3--3---------|3--3--3---------| x1
 1 + 2 + 3 + 4 +  1 + 2 + 3 + 4 +  1 + 2 + 3 + 4 +  1 + 2 + 3 + 4 +

|----------------|----------------|
|----------32----|----------------|
|----------------|----------------|
|3--3--3-------2-|3--3--3---3-3---| x3
 1 + 2 + 3 + 4 +  1 + 2 + 3 + 4 +
 
 Verse x1
 
 "Feel the Funk, Y'all"
|----------------|                |----------------|----------------|
|----------------|                |787-575---------|----------------|
|----------------|                |----------------|----------------|
|----------------| x2             |----------3-3---|3--3--3---3-3---| x3
 1 + 2 + 3 + 4 +                   1 + 2 + 3 + 4 +  1 + 2 + 3 + 4 +

|----------------|----------------|----------------|----------------|
|787-575---------|----------32----|------32--32----|----------5-----|
|----------------|----------------|----------------|----------------|
|----------3-3---|3--3--3-------2-|3--3----------2-|3--3--3-----3---| x1
 1 + 2 + 3 + 4 +  1 + 2 + 3 + 4 +  1 + 2 + 3 + 4 +  1 + 2 + 3 + 4 +
 
|----------------|----------------|----------------|----------------|
|----------5-----|----------32----|------------2-3-|--3-------3-2-3-|
|----------------|----------------|----------------|----------------|
|3--3--3-----3-22|3--3--3-------2-|3--3--3--333----|------3---------| x1
 1 + 2 + 3 + 4 +  1 + 2 + 3 + 4 +  1 + 2 + 3 + 4 +  1 + 2 + 3 + 4 +
 
|----------------|                |----------------|----------------|
|--3-------3-2-3-|                |---32-----32----|---3--3-----3-2-|
|----------------|                |----------------|----------------|
|------3---------| x3             |3-----3-------2-|3---------3-----| x1
 1 + 2 + 3 + 4 +                   1 + 2 + 3 + 4 +  1 + 2 + 3 + 4 +
 
|----------------|----------------|----------------|----------------|
|---3------3-3---|---3--3---3---3-|------3---3-5---|----------------|
|----------------|----------------|----------------|----------------|
|3-----3---------|3---------------|3---------------|3---------------| x1
 1 + 2 + 3 + 4 +  1 + 2 + 3 + 4 +  1 + 2 + 3 + 4 +  1 + 2 + 3 + 4 +
            
Submit corrections

↑ Back to top | Tablatures and chords for acoustic guitar and electric guitar, ukulele, drums are parodies/interpretations of the original songs. You may use it for private study, scholarship, research or language learning purposes only