» » »

Klaus Badelt - The Medallion Calls Tabs

Artists:  A B C D E F G H I J K L M N O P Q R S T U V W X Y Z # 

The Medallion Calls Tabs

(ver. 1) Click to play this song!
Klaus Badelt
 Rating:
4/5 (10 votes)

 The Medallion Calls lessons Tabs too difficult? Try these video lessons and learn fast
 
                -------------------------------------------------------------------------------
                             SONG NAME - Band Name
-------------------------------------------------------------------------------

Tuning:

( P.S. Timing is a bit off)

e|----0-1-3-5-3-1-0-1-3-5-3--1-3-5--3-1-0-1-0---0----------0-1-0-1-3-1-3-----|
B|--3-----------------------------------------3---1-333--3-------------------|
G|---------------------------------------------------------------------------|
D|---------------------------------------------------------------------------|
A|---------------------------------------------------------------------------|
E|---------------------------------------------------------------------------|

e|-5-3-1------0-1-3-5-6----3-1-3-0-5--5-1-0----------0---0-1-0---1--10-12-13-|
B|-------3--3-----------3-------------------3--3---3-----------3-------------|
G|-----------------------------------------------2-----2---------------------|
D|---------------------------------------------------------------------------|
A|---------------------------------------------------------------------------|
E|---------------------------------------------------------------------------|

e|-12-10-8-13-5-3-1-3-5------------0-1----1-0------------0-1-5-0-------------|
B|---------------------------3-1-3------3-----1-3--3-1-3---------1-----------|
G|---------------------------------------------------------------------------|
D|---------------------------------------------------------------------------|
A|---------------------------------------------------------------------------|
E|---------------------------------------------------------------------------|

e|--------0-1----1-0------------0-1-3-5-----0-1-3-5-3-1-0-1-3-5-3---1-3-5------|
B|--3-1-3------3-----1-3--3-1-3-----------3------------------------------------|
G|------------------------THIS-B-LINE-GOES-WHERE-G-IS--------------------------|
D|-----------------------------------------------------------------------------|
A|-----------------------------------------------------------------------------|
E|-----------------------------------------------------------------------------|

e|-3-1-0---------------0-----------------------------------------------------|
B|-------3-2--3--3--3-----3--3--2--3-----------------------------------------|
G|---------------------------------------------------------------------------|
D|---------------------------------------------------------------------------|
A|---------------------------------------------------------------------------|
E|---------------------------------------------------------------------------|


| /  slide up
| \  slide down
| h  hammer-on
| p  pull-off
| ~  vibrato
| +  harmonic
| x  Mute note
===============================================================================
            
Submit corrections


        The Medallion Calls lessons Hard to play? Try these video lessons and learn fast The Medallion Calls lessons
        
↑ Back to top | Tablatures and chords for acoustic guitar and electric guitar, ukulele, drums are parodies/interpretations of the original songs. You may use it for private study, scholarship, research or language learning purposes only