Home » K » Kjwan »

Kjwan - One Look Tabs

Artists:  A B C D E F G H I J K L M N O P Q R S T U V W X Y Z # 

One Look Tabs

(ver. 1) Click to play this song!
Kjwan
Song		:	One Look
Artist		:	Kjwan
Album		:	2 Step Marv

I'm kinda not sure about the notes etc.
Please rate. Thanks! Salamat!

Intro:
e|-----------------8--11--8--------8---------|
B|------------9/10-----------11-11---11-9----|
G|-------8-----------------------------------|
D|--8/10---10--------------------------------|
A|-------------------------------------------|
E|-------------------------------------------|

e|--8/11--11-11--9-8------8--9-8~~-----------|
B|--------------------11---------------------|
G|-------------------------------------------|
D|-------------------------------------------|
A|-------------------------------------------|
E|-------------------------------------------|

e|-----------------8--11--8--------8---------|
B|------------9/10-----------11-11---11-9----|
G|-------8-----------------------------------|
D|--8/10---10--------------------------------|
A|-------------------------------------------|
E|-------------------------------------------|

e|--8/11--11-11--9-8------8~~----------------|
B|--------------------11---------------------|
G|-------------------------------------------|
D|-------------------------------------------|
A|-------------------------------------------|
E|-------------------------------------------|


Verse:
e||-----------------------------------------||(3x)
B||o-4-------4----------2-------2----------o||
G||--5---------5--------3---------3---------||
D||--6-----6-----6------4-----4-----4-------||
A||o-6---6---------6----4---4---------4----o||
E||--4---------------4--2---------------2---||
  Whoa whoa whoa! I know you hate it
  When I say these things right in your face, yey
  But I can’t lie, you know me better

e|---------4------------------------|
B|-4-------4----------2-------2-----|
G|-5---------5--------3---------3---|
D|-6-----6-----6------4-------------|
A|-6---6---------6----4-------------|
E|-4---------------4--2-------------|
  Coz it's the words inside just speak the truth

Chorus:
    V  V    V  V    V  V    V  V
e|-(4)(4)--(4)(4)--(2)(2)--(2)(2)-|
B|--4--4----4--4----2--2----2--2--|
G|--5--5----5--5----3--3----3--3--|
D|--6--6----6--6----4--4----4--4--|
A|--------------------------------|
E|--------------------------------|
  One look and I’m mesmerized by your eyes
  Becomin’ like a hurricane

e|-----4--------------2----------|
B|-4-----4--------2-----2--------|
G|-5-------5------3-------3------|
D|-6---------6----4---------4----|
A|-6-----------6--4-----------4--|
E|-4--------------2--------------|
  Blowing down on me

    V  V    V  V    V  V    V  V
e|-(4)(4)--(4)(4)--(2)(2)--(2)(2)-|
B|--4--4----4--4----2--2----2--2--|
G|--5--5----5--5----3--3----3--3--|
D|--6--6----6--6----4--4----4--4--|
A|--------------------------------|
E|--------------------------------|
  Coz it’s your mystery that captures me
  I’m falling in, drawing closer

e|---------------------------|
B|-4---4--------2---2--------|
G|-5-----5------3-----3------|
D|-6-------6----4-------4----|
A|-6---------6--4---------4--|
E|-4------------2------------|
  And now, oh now, yeah...

Interlude:
e|-----------------8--11--8--------8---------|
B|------------9/10-----------11-11---11-9----|
G|-------8-----------------------------------|
D|--8/10---10--------------------------------|
A|-------------------------------------------|
E|-------------------------------------------|

e|--8/11--11-11--9-8------8--9-8~~-----------|
B|--------------------11---------------------|
G|-------------------------------------------|
D|-------------------------------------------|
A|-------------------------------------------|
E|-------------------------------------------|

e|-----------------8--11--8--------8---------|
B|------------9/10-----------11-11---11-9----|
G|-------8-----------------------------------|
D|--8/10---10--------------------------------|
A|-------------------------------------------|
E|-------------------------------------------|

e|--8/11--11-11--9-8------8~~----------------|
B|--------------------11---------------------|
G|-------------------------------------------|
D|-------------------------------------------|
A|-------------------------------------------|
E|-------------------------------------------|

Verse:
e|---------------------------------------|
B|-4-------4----------2-------2----------|
G|-5---------5--------3---------3--------|
D|-6-----6-----6------4-----4-----4------|
A|-6---6---------6----4---4---------4----|
E|-4---------------4--2---------------2--|
  Pardon me, I’m being honest

e|-----------------------------|
B|-4-------4----------2--------|
G|-5---------5--------3---3----|
D|-6-----6-----6------4---4----|
A|-6---6---------6----4---4----|
E|-4---------------4--2--------|
  Coz I don’t hide, I speak my mind

e|---------------------------------------|
B|-4-------4----------2-------2----------|
G|-5---------5--------3---------3--------|
D|-6-----6-----6------4-----4-----4------|
A|-6---6---------6----4---4---------4----|
E|-4---------------4--2---------------2--|
  Things get weird but we know better

e|-----------------------------------|
B|-4-------4----------2---2----------|
G|-5---------5--------3-----3--------|
D|-6-----6-----6------4-------4------|
A|-6---6---------6----4---------4----|
E|-4---------------4--2-----------2--|
  It’s coz I know you know that I love you girl

Chorus:
    V  V    V  V    V  V    V  V
e|-(4)(4)--(4)(4)--(2)(2)--(2)(2)-|
B|--4--4----4--4----2--2----2--2--|
G|--5--5----5--5----3--3----3--3--|
D|--6--6----6--6----4--4----4--4--|
A|--------------------------------|
E|--------------------------------|
  One look and I’m mesmerized by your eyes
  You're comin’ like a hurricane

e|---------------------------|
B|-4---4--------2---2--------|
G|-5-----5------3-----3------|
D|-6-------6----4-------4----|
A|-6---------6--4---------4--|
E|-4------------2------------|
  Blowing down on me

    V  V    V  V    V  V    V  V
e|-(4)(4)--(4)(4)--(2)(2)--(2)(2)-|
B|--4--4----4--4----2--2----2--2--|
G|--5--5----5--5----3--3----3--3--|
D|--6--6----6--6----4--4----4--4--|
A|--------------------------------|
E|--------------------------------|
  Cause it’s your mystery that captures me
  I’m falling in, drawing closer

e|-----4-----------------------|
B|-4-----4--------2---2--------|
G|-5-------5------3-----3------|
D|-6---------6----4-------4----|
A|-6-----------6--4---------4--|
E|-4--------------2------------|
  And now, oh now, yeah...

e||------------------------------||(3x)
B||o--2---2--------6---6--------o||
G||---3-----3------6-----6-------||
D||---3-------3----6-------6-----||
A||o--1---------1--4---------4--o||
E||------------------------------||
  Blowing down on me...

e|-------------------|
B|--2---2--------4---|
G|--3-----3------3---|
D|--3-------3----4---|
A|--1---------1--4---|
E|---------------2---|
  Blowing down on me...

(No chords)
One look and I’m mesmerized by your eyes
You’re comin’ like a hurricane
Blowing down on me

e|---------------------------|
B|-4---4--------2---2--------|
G|-5-----5------3-----3------|
D|-6-------6----4-------4----|
A|-6---------6--4---------4--|
E|-4------------2------------|
  Cause it’s your mystery that captures me
  I’m falling in, drawing closer

e|-------------------|
B|-4---4--------2----|
G|-5-----5------3----|
D|-6-------6----4----|
A|-6---------6--4----|
E|-4------------2----|
  And now, oh now, yeah...

    V  V    V  V    V  V    V  V
e|-(4)(4)--(4)(4)--(2)(2)--(2)(2)-|
B|--4--4----4--4----2--2----2--2--|
G|--5--5----5--5----3--3----3--3--|
D|--6--6----6--6----4--4----4--4--|
A|--------------------------------|
E|--------------------------------|
  One look and I’m mesmerized by your eyes
  You’re comin’ like a hurricane

e|---------------------------|
B|-4---4--------2---2--------|
G|-5-----5------3-----3------|
D|-6-------6----4-------4----|
A|-6---------6--4---------4--|
E|-4------------2------------|
  Blowing down on me

    V  V    V  V    V  V    V  V
e|-(4)(4)--(4)(4)--(2)(2)--(2)(2)-|
B|--4--4----4--4----2--2----2--2--|
G|--5--5----5--5----3--3----3--3--|
D|--6--6----6--6----4--4----4--4--|
A|--------------------------------|
E|--------------------------------|
  Cause it’s your mystery that captures me
  I’m falling in, drawing closer

e|---------------------------|
B|-4---4--------2---2--------|
G|-5-----5------3-----3------|
D|-6-------6----4-------4----|
A|-6---------6--4---------4--|
E|-4------------2------------|
  And now, oh now, yeah...

Outro:
e|-----------------8--11--8--------8---------|
B|------------9/10-----------11-11---11-9----|
G|-------8-----------------------------------|
D|--8/10---10--------------------------------|
A|-------------------------------------------|
E|-------------------------------------------|

e|--8/11--11-11--9-8------8--9-8~~-----------|
B|--------------------11---------------------|
G|-------------------------------------------|
D|-------------------------------------------|
A|-------------------------------------------|
E|-------------------------------------------|

e|-----------------8--11--8--------8---------|
B|------------9/10-----------11-11---11-9----|
G|-------8-----------------------------------|
D|--8/10---10--------------------------------|
A|-------------------------------------------|
E|-------------------------------------------|

e|--8/11--11-11--9-8------8~~----------------|
B|--------------------11---------------------|
G|-------------------------------------------|
D|-------------------------------------------|
A|-------------------------------------------|
E|-------------------------------------------|

End...
            
Submit corrections

↑ Back to top | Tablatures and chords for acoustic guitar and electric guitar, ukulele, drums are parodies/interpretations of the original songs. You may use it for private study, scholarship, research or language learning purposes only