» » »

Kittie - Paperdoll Remix Bass

Artists:  A B C D E F G H I J K L M N O P Q R S T U V W X Y Z # 

Paperdoll Remix Bass

(ver. 1) Click to play this song!
Kittie
 Rating:
4/5 (4 votes)

 Paperdoll Remix lessons Tabs too difficult? Try these video lessons and learn fast
 
                Riff 1
||--------------------------------------|
||-0h2-2-2-222---00--3-33-33-33-55-3----|x4
||--------------------------------------|
||--------------------------------------|
||--------------------------------------|

Riff 2
||--------------------------------------|
||--------------------------------------|x4
||--------------------------------------|
||--------------------------------------|
||-0h2-2-2-222---00--3-33-33-33-55-3----|

Riff 3
||--------------------------------------|
||--------------------------------------|x4
||--------------------------------------|
||--------------------------------------|
||-2-2222-2-2222-2--00-3-3333-33-55-3---|

Riff 4
||--------------------------------------|
||--------------------------------------|x4
||--------------------------------------|
||--------------------------------------|
||-/6-6-6-6-0----/6-6-6-6-0-7-7---------|

Riff 5
||--------------------------------------|
||--------------------------------------|x11
||--------------------------------------|
||--------------------------------------|
||-\12---4-33-3-4-33-3-4444-------------|

AND THEIR IT IS...MY TIMING IS A WEE BIT OFF BUT ALL THESE TABS ARE PRETTY ACCURATE!
THE WHOLE SONG FROM BEGINING TO END GOES:
Riff 1 X4
Riff 2 X4
Riff 3 X4
Riff 2 X4
Riff 4 X4
Riff 2 X2
Riff 3 X4
Riff 2 X4
Riff 4 X4
Riff 5 X12
Riff 4 X4

ENJOY! IF YOU SEE A FLAW IN MY TAB THEN FEEL FREE TO LET ME KNOW...AND IF YOUR WANNA 
IT ON GUITAR ITS PRETTY MUCH THE SAME EXCEPT THE NOTES ARE ALL IN POWER CHORDS! =)
            
Submit corrections


        Paperdoll Remix lessons Hard to play? Try these video lessons and learn fast Paperdoll Remix lessons
        
↑ Back to top | Tablatures and chords for acoustic guitar and electric guitar, ukulele, drums are parodies/interpretations of the original songs. You may use it for private study, scholarship, research or language learning purposes only