Home » K » Kisschasy »

Kisschasy - United Paper People Tabs

Artists:  A B C D E F G H I J K L M N O P Q R S T U V W X Y Z # 

United Paper People Tabs
Version #2
Kisschasy


Copy URL
(Intro)
Opening cords-play for most of the song
E|-----------------------|
B|---------7-------------|
G|-----6---7-------------|
D|-----7---5-------------|
A|-----5---5-------------|
D|---------5-------------|
then play and slide back to...
E|--------------|
B|--------7-----|
G|-----3--7-----|
D|-----4--5-----|
A|-----2--5-----|
D|--------5-----|
            
Submit corrections

↑ Back to top | Tablatures and chords for acoustic guitar and electric guitar, ukulele, drums are parodies/interpretations of the original songs. You may use it for private study, scholarship, research or language learning purposes only