Home » K » Kisschasy »

Kisschasy - This Bed Tabs

Artists:  A B C D E F G H I J K L M N O P Q R S T U V W X Y Z # 

This Bed Tabs
Version #2
Kisschasy


Copy URL
Kisschasy
This Bed
United Paper People
Standard Tuning (E, A, D, G, B, e)


|--------------------|
|---5----5----5-4-5--|
|---4----4----4-4-4--|
|--------------------|
|--2----4----0-------|
|--------------------|


Pre-Chorus
|----0---0---0---0--4---4------2---2--|
|---2---2---2---2----2---2----2---2---|
|---------------------4---4--3---3----|
|-------------------------------------|
|--4---4---3---3----------------------|
|-------------------------------------|


Chorus
|-------------------------------------|-------------------------------------------|--------|
|-------------------------------------|-------------------------------------------|--------|
|--22-XXX-22-XXX-44-XXX-44-XXX--------|--22-XXX-22-XXX-4-4-4-4-4-4-6-6-6-6-6-6----|-2-2-2--|
|--22-XXX-22-XXX-44-XXX-44-XXX--------|--22-XXX-22-XXX-4-4-4-4-4-4-6-6-6-6-6-6----|-2-2-2--|
|--00-XXX-00-XXX-22-XXX-22-XXX--------|--00-XXX-00-XXX-2-2-2-2-2-2-4-4-4-4-4-4----|-0-0-0--|
|---------------------------------x2--|----------------------------------------x2-|----etc-|







Interlude
|---0----0----0----4----|
|----2----2----2----2---|
|--------------------3--|
|-----------------------|
|--4----3----2----------|
|-----------------------|


|-----------------------------------|
|-----------------------------------|
|-----------------------------------|
|--6-6-6-6-6-6-6-6-4-4-4-4-4-4-4-4--|
|--4-4-4-4-3-3-3-3-2-2-2-2-1-1-1-1--|
|-----------------------------------|

Merry xmas
            
Submit corrections

↑ Back to top | Tablatures and chords for acoustic guitar and electric guitar, ukulele, drums are parodies/interpretations of the original songs. You may use it for private study, scholarship, research or language learning purposes only