Home » K » Kisschasy »

Kisschasy - Perfect Way To Meet Tabs

Artists:  A B C D E F G H I J K L M N O P Q R S T U V W X Y Z # 

Perfect Way To Meet Tabs
Version #1
Kisschasy


Copy URL
Intro/verse
E|----------|
B|----------|
G|----------|
D|----------|
A|4-4-6-6-8-|
E|2-2-4-4-6-|

Chorus (can either play the High E and B notes or not-its just the lead on a seperate 
if you chose not to just play rhythm whole time)
E|-----------------4-------4|----------4-----4----4-|
B|----9-------9-------------|----9------------------|
G|--------------------------|-----------------------|
D|--------------------------|-----------------------|
A|8-8---11-11--3--3-----6---|8-8---4-4---3-3---6-6--|
E|6-6---9-9----1--1-----4---|6-6---2-2---1-1---4-4--|
            
Submit corrections

↑ Back to top | Tablatures and chords for acoustic guitar and electric guitar, ukulele, drums are parodies/interpretations of the original songs. You may use it for private study, scholarship, research or language learning purposes only