Home » K » Kisschasy »

Kisschasy - Spray On Pants Tabs

Artists:  A B C D E F G H I J K L M N O P Q R S T U V W X Y Z # 

Spray On Pants Tabs
Version #2
Kisschasy


Copy URL
Intro/verse
E|-------------------------|
B|-------------------------|
G|-------------------------|
D|-------------------------|
A|2-2-2--------0-0-0-------|
E|------4-4-4-4------0-0-0-|

Chorus
E|--------------------------------|
B|2-2-2-2-4-4-4-4-2-2-2-2-0-0-0-0-|
G|4-4-4-4-4-4-4-4-2-2-2-2-1-1-1-1-|
D|4-4-4-4-6-6-6-6-2-2-2-2-2-2-2-2-|
A|2-2-2-2-6-6-6-6-0-0-0-0-2-2-2-2-|
E|--------4-4-4-4---------0-0-0-0-|
            
Submit corrections

↑ Back to top | Tablatures and chords for acoustic guitar and electric guitar, ukulele, drums are parodies/interpretations of the original songs. You may use it for private study, scholarship, research or language learning purposes only