Home » K » King Of The Hill »

King Of The Hill - Theme Song Tabs

Artists:  A B C D E F G H I J K L M N O P Q R S T U V W X Y Z # 

Theme Song Tabs

(ver. 2) Click to play this song!
King Of The Hill
la toune est ben facile pi lfun a jouer
jespere quya pas derreur
Raphael Lariviere


clean intro

----------3-----|------------------------------------------------------------
---1-1----0-----|------------------------------------------------------------
---0-0----0-----|------------------------------------------------------------
---2-2----0-----|------------------------------------------------------------
-3-3-3----2-----|-----------------------------------4--2-222-----------------
--------3-3-----|--0-0000----4----0-000----5-555-----------------------------                              
                                   
--0-0000----4----0000---5-55--4-44--2-22---4-44--2-0-------------------------

 ----------------------------------------------------------------------------
-----------------------------------4--2-222----------------------------------
--0-0000----4----0-000----5-555----------------------------------------------

 
----------------------------------------|
----------------------------------------|
----------------------------------------|
----------------------------------------|
--7-77--5-55----------------------------|
---------------7-77---5-55--4-44-5-4-0--|


------------6-6-6-6-4-4-4-4-6-6-6------------------------------------------
------------6-6-6-6-4-4-4-4-6-6-6------------------------------------------
--xxxxx-----4-4-4-4-2-2-2-2-4-4-4----7-77--5-55----------------------------
--00000-----.-.-.-.-.-.-.-.-.-.-.-----------------7-77---5-55--4-44-5-4-0--        


-----------------------------------4--2-222----------------------------------
--0-0000----4----0-000----5-555----------------------------------------------


-----------------------------------------------
-----------------------------------------------
----------------------------------------9-9----
----------------------------------------9-9----
--7-77--5-55----------------------------7-7----
---------------7-77---5-55--4-44-5-4-0--.-.----
            
Submit corrections

↑ Back to top | Tablatures and chords for acoustic guitar and electric guitar, ukulele, drums are parodies/interpretations of the original songs. You may use it for private study, scholarship, research or language learning purposes only