Home » K » King Of The Hill »

King Of The Hill - King Of The Hill Tabs

Artists:  A B C D E F G H I J K L M N O P Q R S T U V W X Y Z # 

King Of The Hill Tabs

(ver. 3) Click to play this song!
King Of The Hill
King of the Hill Theme Song
By Adam Berger a.k.a. BUMMER

e  --------------------------------
B  --------------------------------
G  --------------------------------
D  --------------------------------
A  2-2-2-2--6-6-6-6--7-7-7-7--11--9
E  0-0-0-0--4-4-4-4--5-5-5-5--9 --7

e  --------------------------------
B  --------------------------------
G  --------------------------------
D  --------------------------------
A  2-2-2-2--6-6-6-6--7-7-7-7--6--4
E  0-0-0-0--4-4-4-4--5-5-5-5--4--2

e  --------------------------------
B  --------------------------------
G  --------------------------------
D  --------------------------------
A  2-2-2-2--6-6-6-6--7-7-7-7--11--9
E  0-0-0-0--4-4-4-4--5-5-5-5--9 --7

e  -------------------------
B  -------------------------
G  -------------------------
D  -------------------------
A  14--11--9--7--6-6-6--4--2
E  12--9 --7--5--4-4-4--2--0

e  --------------------------------------------------
B  --------------------------------------------------
G  --------------------------------------------------
D  --------------------------------------------------
A  11-11-11-11--9-9-9-9--7-7-7-7-7-7-7--9-9-9-9-9-9-9
E   9 -9 -9 -9--7-7-7-7--5-5-5-5-5-5-5--7-7-7-7-7-7-7

e  --------------------------------------------------
B  --------------------------------------------------
G  --------------------------------------------------
D  --------------------------------------------------
A  11-11-11-11--9-9-9-9--7-7-7-7-7-7-7--9-9-9-9-9-9-9
E   9 -9 -9 -9--7-7-7-7--5-5-5-5-5-5-5--7-7-7-7-7-7-7

e  --------------------------------
B  --------------------------------
G  --------------------------------
D  --------------------------------
A  2-2-2-2--6-6-6-6--7-7-7-7--11--9
E  0-0-0-0--4-4-4-4--5-5-5-5--9 --7

e  -------------------------
B  -------------------------
G  -------------------------
D  -------------------------
A  14--11--9--7--6-6-6--4--2
E  12--9 --7--5--4-4-4--2--0

Good Luck and Enjoy.
            
Submit corrections

↑ Back to top | Tablatures and chords for acoustic guitar and electric guitar, ukulele, drums are parodies/interpretations of the original songs. You may use it for private study, scholarship, research or language learning purposes only