» » »

King Crimson - The Court Of The Crimson King Bass

Artists:  A B C D E F G H I J K L M N O P Q R S T U V W X Y Z # 

The Court Of The Crimson King Bass

(ver. 2) Click to play this song!
King Crimson
 Rating:
4/5 (4 votes)

 The Court Of The Crimson King lessons Tabs too difficult? Try these video lessons and learn fast
 
                Gtr I (E A D G) - 'Greg Lake - Bass'


 Intro
  Q=68
 4/4
  Gtr I
  W           Q   E.  S  H      H    Q.   E   H    Q.   E
|----------|------------------|-------------|-------------|
|----------|------------------|-------------|------9------|
|----------|---------12-------|-------------|-----------9-|
|----------|-10--10-----10----|-8----8----8-|-7-----------|


  W           E  E  E.  S  E  E  S  S  E   Q  Q  Q  Q    Q  Q  Q  E E
|----------|-----------------------------|-------------|--------------|
|----------|-----------------------------|-------------|--------------|
|----------|-----------12----------12----|-------------|------------9-|
|-7--------|-10-10-10-----10-10-10----10-|-8--8--8--8--|-7--7--7--7---|


             1st Verse
              Q=65
  W           W          W          W
|----------||----------|----------|------|
|----------||----------|----------|------|
|----------||----------|----------|------|
|-7--------||----------|----------|------|


                                                Q=56
                                               2/4
  W          W          +W           W          W
|----------|----------|------------|----------|------|
|----------|----------|------------|----------|------|
|----------|-0--------|-(0)--------|----------|------|
|----------|----------|------------|----------|------|


   Interlude
    Q=68
    $
   4/4
     Q   +E.  S  S  S  E  +Q     Q  Q  Q  Q    H    Q.   E   W
||-----------------------------|-------------|-------------|------|
||o-------------12-------------|-------------|------9------|------|
||o----------12----12----------|-------------|-----------9-|------|
||--10--(10)----------10-(10)--|-8--8--8--8--|-7-----------|-7----|


                                                    1.
                                           To Coda
   Q   Q   Q   Q    Q  +E.  S  H      H    Q.   E    W
|-----------------|-----------------|--------------|------||
|-----------------|-----------10----|------9-------|------||
|-----------------|--------10-------|-----------9--|------||
|-10--10--10--10--|-8--(8)----------|-7------------|-7----||


 2nd & 3rd Verses
  Q=67
  W          W          W          W
|----------|----------|----------|------|
|----------|----------|----------|------|
|----------|----------|----------|------|
|----------|----------|----------|------|


                                             2.
                                    2/4      4/4
  W          +W           W          W        W
|----------|------------|----------|-------||------||
|----------|------------|----------|------o||------||
|-0--------|-(0)--------|-7--------|------o||------||
|----------|------------|----------|-------||-7----||


 Interlude
  S S S S S S S S S S S S S S S S   S S S S S S S S S S S S S S S S
|---------------------------------|---------------------------------|
|---7---7---7---7---7---7---7---7-|---5---5---5---5---5---5---5---5-|
|-5---5---5---5---5---5---5---5---|-3---3---3---3---3---3---3---3---|
|---------------------------------|---------------------------------|


  S S S S S S S S S S S S S S S S   S S S S S S S S S S S S S S S S
|---------------------------------|---------------------------------|
|---7---7---7---7---7---7---7---7-|---5---5---5---5---5---5---5---5-|
|-5---5---5---5---5---5---5---5---|-3---3---3---3---3---3---3---3---|
|---------------------------------|---------------------------------|


  S S S S S S S S S S S S S S S S   S S S S S S S S S S S S S S S S
|---------------------------------|---------------------------------|
|---7---7---7---7---7---7---7---7-|---5---5---5---5---5---5---5---5-|
|-5---5---5---5---5---5---5---5---|-3---3---3---3---3---3---3---3---|
|---------------------------------|---------------------------------|


  S S S S S S S S S S S S S S S S   S S S S S S S S S S S S S S S S
|---------------------------------|---------------------------------|
|---7---7---7---7---7---7---7---7-|---5---5---5---5---5---5---5---5-|
|-5---5---5---5---5---5---5---5---|-3---3---3---3---3---3---3---3---|
|---------------------------------|---------------------------------|


                                                          Q=70
                                          D.S. al Coda &
  S S S S S S S S S S S S S S S S   S S E E E E E E E     W
|---------------------------------|--------------------||------||
|---4---4---4---4---4---4---4---4-|--------------------||------||
|-2---2---2---2---2---2---2---2---|--------------------||------||
|---------------------------------|-2-2-3-4-5-6-7-8-9--||-7----||


 Flute & Guitar Solo
  W          W          W          H    +E  S S Q    Q  Q  S S S S  Q
|----------|----------|----------|-5----(5)-5------|-----------7-9-11--|
|----------|----------|----------|------------5----|---------7---------|
|-5--------|-3--------|-5--------|--------------3--|-5--5--5-----------|
|----------|----------|----------|-----------------|-------------------|


  W          H    S S S S Q    H    S S S S Q    H    S S S S Q
|----------|------7---7------|------5---5------|------7----------|
|----------|--------7---7----|--------5---5----|--------7--------|
|-3--------|-5------------5--|-3------------3--|-5--------5---5--|
|----------|-----------------|-----------------|-----------------|


  H.      E E   H    +E  E E E   W          W
|-----------5-|----------7-----|----------|------|
|---------5---|------------7---|----------|------|
|-3-----------|-5----(5)-----5-|-3--------|-5----|
|-------------|----------------|----------|------|


  H    +Q.   E   H    S S E +Q     S S E +Q   S S E +Q     H    E E Q
|-5----(5)-----|------7----------|-5--------------5-(5)--|------7-------|
|--------------|--------7--------|---5----------5--------|--------7-----|
|------------0-|-5--------5-(5)--|-----3-(3)--3----------|-5--------5---|
|--------------|-----------------|-----------------------|--------------|


                                          Q=70
  Q  Q  Q  Q    Q  Q  Q  E E   W          W
|----5-----5--|----4-----4---|----------|------|
|-------------|--------------|----------|------|
|-3-----3-----|-2-----2------|-2--------|------|
|-------------|------------2-|----------|-0----|


               4th Verse
  +W            +W           +W           +W
|------------||------------|------------|--------|
|------------||------------|------------|--------|
|------------||------------|------------|--------|
|-(0)--------||-(0)--------|-(0)--------|-(0)----|


                                                    Q=62
                                                   2/4
  +W           H    H      H    H       W            +H
|------------|-----------|-----------|------------|----------|
|------------|------7----|-7----7----|------------|----------|
|------------|-0---------|-----------|-<7>--------|-(<7>)----|
|-(0)--------|-----------|-----------|------------|----------|


   Interlude
    Q=71                                                        1.,2.
   4/4
     Q   E.  S  S  S  E  +Q     H    E  E  E  E   Q  Q  Q  E E   W     3x
||----------------------------|-----------------|--------------|-------||
||o------------12----12-(12)--|-----------10----|-------9--9---|------o||
||o---------12----12----------|--------10----10-|------------9-|------o||
||--10--10--------------------|-8----8----------|-7--7---------|-7-----||


  3.
  W          +H.      Q    W          +W
|----------|-------------|----------|--------|
|----------|-------------|----------|--------|
|----------|-------------|----------|--------|
|-7--------|-(7)---------|-0--------|-(0)----|


             Q=65       Q=50
  W          W          W          W
|----------|----------|----------|------||
|----------|----------|----------|------||
|----------|----------|----------|------||
|----------|----------|----------|------||


 Recorder & Organ Solo
  Q=75
  Wx12
|---------|
|---------|
|---------|
|---------|


              Outro
  Q=72
  W             S  S  S  S  E.  S  Q   Q
|----------||-----------------------------|
|----------||o------------------------14--|
|----------||o-----------------14---------|
|----------||--12-12-12-12-12-----12------|


   E  E  E  E  H      Q   E  E  Q   E  E
|-------------------|---------------------|
|-------12----12----|----11----11--11-----|
|----12----12-------|-------11--------11--|
|-10----------------|-9-------------------|


  W           S  S  S  S  +E.  S  H
|----------|---------------------------|
|----------|---------------------------|
|----------|------------------14-------|
|-9--------|-12-12-12-12-(12)----12----|


   S  S  E  +E   E  Q.    E   Q.   E  Q.    E
|---------------------------|-----------------|
|-12---------------12-------|--------11-------|
|----12---------12-------12-|--------------11-|
|-------10-(10)-------------|-9----9----------|


  1.,2.       3.
  W         3x W          +W
|-----------||----------|--------*|
|----------o||----------|--------*|
|----------o||----------|--------*|
|-9---------||-9--------|-(9)----*|

            
Submit corrections


        The Court Of The Crimson King lessons Hard to play? Try these video lessons and learn fast The Court Of The Crimson King lessons
        
↑ Back to top | Tablatures and chords for acoustic guitar and electric guitar, ukulele, drums are parodies/interpretations of the original songs. You may use it for private study, scholarship, research or language learning purposes only