Home » K » King Crimson »

King Crimson - In The Court Of The Crimson King Bass

Artists:  A B C D E F G H I J K L M N O P Q R S T U V W X Y Z # 

In The Court Of The Crimson King Bass

(ver. 1) Click to play this song!
King Crimson
 Rating:
4/5 (4 votes)
                Member of the Bass Tab Archive Tabbing Army ~

No bass on verses

Chorus:

|--------------------------|--------------------------|
|--------------------------|--------------------------|
|--5--5--5--5--5--5--5--5--|--3--3--3--3--3--3--3--3--|
|--------------------------|--------------------------|


                                              
--------------------------|
--------------------------|
--2--2--2--2--2--2--2--2--|
--------------------------|



Flute Solo 1:

|---7-------------------------------|
|*----7---7---7---7---7---7---7---7-|
|*------5---5---5---5---5---5---5---|
|-----------------------------------|


                                   4x
-----------------------------------||
----5---5---5---5---5---5---5---5-*||
--3---3---3---3---3---3---3---3---*||
-----------------------------------||


                                                               
----------------------------------|---------------------------|
----4---4---4---4---4---4---4---4-|---------------------------|
--2---2---2---2---2---2---2---2---|------------0--1--2--3--4--|
----------------------------------|--2-2-3--4-----------------|


Flute Solo 2:

|-------------------|-------------------|
|-------------------|-------------------|
|--5----------------|--3----------------|
|-------------------|-------------------|


                                           
-------------------|--5----------5--------|
-------------------|---------------5------|
--5----------------|-----------------3----|
-------------------|----------------------|


                                                
------------7---7-9-11----|--------------------|
--------------7-----------|--10----------------|
--5----5------------------|--------------------|
--------------------------|--------------------|


                                                  
-----------7---7--------|-----------5---5--------|
-------------7---7------|-------------5---5------|
--5----------------5----|--3----------------3----|
------------------------|------------------------|


                                             
-----------7----------|------------------5--|
-------------7--------|---------------5-----|
--5--------------5----|--3------------------|
----------------------|---------------------|


                                                               
-------------7--------|-------------------|-------------------|
----------------7-----|-------------------|-------------------|
--5----------------5--|--3----------------|--5----------------|
----------------------|-------------------|-------------------|


                                            
--5-----------------|-----------7----------|
--------------------|-------------7--------|
--------------------|--5------------5------|
-----------------5--|----------------------|


                                                
--5--------------5------|-----------7----------|
----5----------5--------|--------------7-------|
------3------3----------|--5--------------5----|
------------------------|----------------------|


                                               
-------5---------5----|-------4---------4-----|
----------------------|-----------------------|
--3---------3---------|--2---------2----------|
----------------------|--------------------2--|


                     
-------------------||
-------------------||
--2----------------||
-------------------||



Chorus x2
Verse (no bass)
Chorus x2
Verse (no bass)
Chorus x2
Flute solo 1
Chorus x2
Verse (no bass)
Chorus x2
Flute solo 2
Verse (no bass)
Chorus x3
Chorus x6
            
Submit corrections

↑ Back to top | Tablatures and chords for acoustic guitar and electric guitar, ukulele, drums are parodies/interpretations of the original songs. You may use it for private study, scholarship, research or language learning purposes only