» » »

Killswitch Engage - Light In A Darkened World Tabs

Artists:  A B C D E F G H I J K L M N O P Q R S T U V W X Y Z # 

Light In A Darkened World Tabs

(ver. 3) Click to play this song!
Killswitch Engage
 Rating:
4/5 (4 votes)

 Light In A Darkened World lessons Tabs too difficult? Try these video lessons and learn fast
 
                Here is A Light In A Darkened World tab.  I hope you enjoy.  Feel free to ask me tab any 
ENGAGE song



~~= vibrato   ^= bend   .= palm mute
/= slide into   \=slide away
h= hammer on    p= pull-off

D[----------------------------------------------------------------------]
A[----------------------------------------------------------------------]
F[-----------------------------------7-9-7~~--7-------------------------]
C[--7----7----7---10--10------7-9-10-------------10-9------(6x)---------]
G[----0-0--0-0--0----0---0-10-------------------------------------------]
C[----------------------------------------------------------------------]


D[-----------------------------------------------------------------------]
A[-----------------------------------------------------------------------]
F[------------------------------------9--7h9p7---------------------------]
C[--/7~~-----7-9-10~~--/12-10-9-----------------10-9-10-9---/7----7-9-10-]
G[---------10--------------------8~~----------------------------10-------]
C[-----------------------------------------------------------------------]


D[---------------15^---13-15~~-------------------------------------------]
A[-----------------------------------------------------------------------]
F[-----------------------------------------------------------------------]
C[--/12-10-9-/15---------------------------------------------------------]
G[-----------------------------------------------------------------------]
C[-----------------------------------------------------------------------]


D[----------------------------------------------------------------------]
A[----------------------------------------------------------------------]
F[-----------------------------------7-9-7~~--7-------------------------]
C[--7----7----7---10--10------7-9-10-------------10-9------(4x)---------]
G[----0-0--0-0--0----0---0-10-------------------------------------------]
C[----------------------------------------------------------------------]


D[-----------------------------------------------------------------------]
A[-----------------------------------------------------------------------]
F[------------------------------------9--7h9p7---------------------------]
C[--/7~~-----7-9-10~~--/12-10-9-----------------10-9-10-9---/7----7-9-10-]
G[---------10--------------------8~~----------------------------10-------]
C[-----------------------------------------------------------------------]


D[---------------15^---13-15~~-------------------------------------------]
A[-----------------------------------------------------------------------]
F[-----------------------------------------------------------------------]
C[--/12-10-9-/15------------------------------------------(2x)-----------]
G[-----------------------------------------------------------------------]
C[-----------------------------------------------------------------------]

D[----------------------------------------------------------------------]
A[----------------------------------------------------------------------]
F[--12----12-----12---12----12-----9------9------9----9----9------------]
C[--10----10-----10---10----10----10-----10-----10---10---10------------]
G[----8-8----8-8----8----8-----8-----8-8----8-8----8----8----8----------]
C[----------------------------------------------------------------------]


D[----------------------------------------------------------------------]
A[----------------------------------------------------------------------]
F[---9------9------9----9----9----7------7------7----7----7-------------]
C[--10-----10-----10---10---10----10-----10-----10---10---10------------]
G[-----0-0----0-0----0----0----0-----0-0----0-0----0----0----0----------]
C[----------------------------------------------------------------------]


D[--12---12--15----12---12--15----10--10--10----12----------------------]
A[----13---13--13----13---13--13----13--13--13----13--------------------]
F[------14---14--14----14---14--14----12--12--12----14------------------]
C[----------------------------------------------------------------------]
G[----------------------------------------------------------------------]
C[----------------------------------------------------------------------]
C[----------------------------------------------------------------------]

D[------------------------------]
A[------------------------------]
F[------------------------------]
C[------------------------------]
G[--12\11\10\9\8\7\6\5\4\3\2\1\-]
C[--12\11\10\9\8\7\6\5\4\3\2\1\-]


D[-----------------------------------------------------------------------]
A[-----------------------------------------------------------------------]
F[------------------------------------9--7h9p7---------------------------]
C[--/7~~-----7-9-10~~--/12-10-9-----------------10-9-10-9---/7----7-9-10-]
G[---------10--------------------8~~----------------------------10-------]
C[-----------------------------------------------------------------------]


D[---------------15^---13-15~~---------]   D[----------]
A[-------------------------------------]   A[----------]
F[-------------------------------------]   F[----------]
C[--/12-10-9-/15------------------(2x)-]   C[-------7--]
G[-------------------------------------]   G[--0----7--]
C[-------------------------------------]   C[--0----7--]
            
Submit corrections


        Light In A Darkened World lessons Hard to play? Try these video lessons and learn fast Light In A Darkened World lessons
        
↑ Back to top | Tablatures and chords for acoustic guitar and electric guitar, ukulele, drums are parodies/interpretations of the original songs. You may use it for private study, scholarship, research or language learning purposes only