» » »

Killswitch Engage - Light In A Darkened World Tabs

Artists:  A B C D E F G H I J K L M N O P Q R S T U V W X Y Z # 

Light In A Darkened World Tabs

(ver. 1) Click to play this song!
Killswitch Engage
 Rating:
4/5 (4 votes)

 Light In A Darkened World lessons Tabs too difficult? Try these video lessons and learn fast
 
                                             Killswitch Engage
                         Light in a Darkened World

Here is the correct version of Light in a Darkened World.
I wanted to get this in quickly for everyone so ill add
the rhythm guitar later. Enjoy!                                


Lead Guitar(Distortion)
Intro  x1
d1------------------------------------------------------1
a1------------------------------------------------------1
f1----------------------------------------9-7~~~~-------1
c1--7-----7-----7---10---10--------7-9-10--------9-7----1
g1----0-0---0-0---0----0----0-8-10----------------------1
c1------------------------------------------------------1


d1------------------------------------------------------1
a1------------------------------------------------------1
f1-------------------5----5-----------------9-7~~~~-----1
c1--7-----7-----7------------------7-9-10--------9-7----1
g1----5-5---5-5---5----5----5-8-10----------------------1
c1------------------------------------------------------1


Verse 1 x2
d1------------------------------------------------------1
a1------------------------------------------------------1
f1----------------------------------------9-7~~~~-------1
c1--7-----7-----7---10---10--------7-9-10--------9-7----1
g1----0-0---0-0---0----0----0-8-10----------------------1
c1------------------------------------------------------1


d1------------------------------------------------------1
a1------------------------------------------------------1
f1-------------------5----5-----------------9-7~~~~-----1
c1--7-----7-----7------------------7-9-10--------9-7----1
g1----5-5---5-5---5----5----5-8-10----------------------1
c1------------------------------------------------------1


Chorus  x1
d1-------------------------------------------------------------1
a1-------------------------------------------------------------1
f1-------------------------------------------------------------1
c1--\7~~~~---7-9-10~~~~\12-10-9-------\14-12h14p12-10-9-10-9---1
g1--------10--------------------8~~~~--------------------------1
c1-------------------------------------------------------------1


d1-------------------------------------------------------------1
a1-------------------------------------------------------------1
f1--------------------------------------15~~~~14h15h14---------1
c1--7~~~~---7-9-10~~~~\12-10-9-\15~~~~~------------------------1
g1--------10---------------------------------------------------1
c1-------------------------------------------------------------1


Verse 2 x2
d1------------------------------------------------------1
a1------------------------------------------------------1
f1----------------------------------------9-7~~~~-------1
c1--7-----7-----7---10---10--------7-9-10--------9-7----1
g1----0-0---0-0---0----0----0-8-10----------------------1
c1------------------------------------------------------1


d1------------------------------------------------------1
a1------------------------------------------------------1
f1-------------------5----5-----------------9-7~~~~-----1
c1--7-----7-----7------------------7-9-10--------9-7----1
g1----5-5---5-5---5----5----5-8-10----------------------1
c1------------------------------------------------------1


Chorus  x2
d1-------------------------------------------------------------1
a1-------------------------------------------------------------1
f1-------------------------------------------------------------1
c1--\7~~~~---7-9-10~~~~\12-10-9-------\14-12h14p12-10-9-10-9---1
g1--------10--------------------8~~~~--------------------------1
c1-------------------------------------------------------------1


d1-------------------------------------------------------------1
a1-------------------------------------------------------------1
f1--------------------------------------15~~~~14h15h14---------1
c1--7~~~~---7-9-10~~~~\12-10-9-\15~~~~~------------------------1
g1--------10---------------------------------------------------1
c1-------------------------------------------------------------1


Breakdown  x2
Dl-------------------------------------------------------------l
Al-------------------------------------------------------------l
Fl--12----12----12---12---12---9-----9-----9----9----9---------l
Cl--10----10----10---10---10---10----10----10---10---10--------l
Gl-----88----88----8----8----8----88----88----8----8----8------l
Cl-------------------------------------------------------------l

Dl-------------------------------------------------------------l
Al-------------------------------------------------------------l
Fl--9----9----9---9---9---7----7----7---7---7------------------l
Cl--7----7----7---7---7---5----5----5---5---5------------------l
Gl----00---00---0---0---0---55---55---5---5---5----------------l
Cl-------------------------------------------------------------l


Clean Part  x1 (Chorus plus Delay)
Dl--12-----------12-------15-------12-----------12-------15---------l
Al-----13-----------13-------13-------13-----------13-------13------l
Fl--------12~~~~-------12-------12-------12~~~~-------12-------12---l
Cl------------------------------------------------------------------l
Gl------------------------------------------------------------------l
Cl------------------------------------------------------------------l

Dl--10-----------10-------10-------12-------------------------------l
Al-----12-----------12-------12-------13----------------------------l
Fl--------12~~~~-------12-------12-------12~~~~~~-------------------l
Cl------------------------------------------------------------------l
Gl------------------------------------------------------------------l
Cl------------------------------------------------------------------l


Outro  x2
d1-------------------------------------------------------------1
a1-------------------------------------------------------------1
f1-------------------------------------------------------------1
c1--\7~~~~---7-9-10~~~~\12-10-9-------\14-12h14p12-10-9-10-9---1
g1--------10--------------------8~~~~--------------------------1
c1-------------------------------------------------------------1


d1-------------------------------------------------------------1
a1-------------------------------------------------------------1
f1--------------------------------------15~~~~14h15h14---------1
c1--7~~~~---7-9-10~~~~\12-10-9-\15~~~~~------------------------1
g1--------10---------------------------------------------------1
c1-------------------------------------------------------------1


d1----------------------------1
a1----------------------------1
f1----------------------------1
c1-----7~~~~~~~~~~~~~~~~~~~~~~1
g1-----7~~~~~~~~~~~~~~~~~~~~~~1
c1---5-7~~~~~~~~~~~~~~~~~~~~~~1
            
Submit corrections


        Light In A Darkened World lessons Hard to play? Try these video lessons and learn fast Light In A Darkened World lessons
        
↑ Back to top | Tablatures and chords for acoustic guitar and electric guitar, ukulele, drums are parodies/interpretations of the original songs. You may use it for private study, scholarship, research or language learning purposes only