» » »

Killswitch Engage - Life To Lifeless Tabs

Artists:  A B C D E F G H I J K L M N O P Q R S T U V W X Y Z # 

Life To Lifeless Tabs

(ver. 3) Click to play this song!
Killswitch Engage
 Rating:
4/5 (4 votes)

 Life To Lifeless lessons Tabs too difficult? Try these video lessons and learn fast
 
                ---------------------------------------
---------------------------------------
---------------------------------------
---------------------------------------
22-22-222222-22-22-22-222222-22--------
00-00-000000-00-00 00-000000-00--------


--------------------
--------------------
--------------------
--------------------
5--6--2----5--6--2--
3--4--0----3--4--0--

-------------------
-------------------
-------------------
-------------------
22-22-222222-22----
00-00-000000-00----

-----------------------------------------
-----------------------------------------
-----------------------------------------
----------------7------------------------
5-2-2-2-6-2-2-2-5-2-2-2-2-2-222-2-2------
3-0-0-0-4-0-0-0---0-0-0-0-0-000-0-0------

---------------------------------------
---------------------------------------
---------------------------------------
---------------------------------------
22-22-222222-22-22-22-222222-22--------
00-00-000000-00-00-00-000000-00--------

-----------------------------------------
-----------------------------------------
-----------------------------------------
----------------7------------------------
5-2-2-2-6-2-2-2-5-2-2-2-2-2-222-2-2------
3-0-0-0-4-0-0-0---0-0-0-0-0-000-0-0------

--------------------------------------------
--------------------------------(9)(9)(9)(9)
--------------------------------------------
7-5-----------------7-5---------------------
5-3-22-5-22-555-2-3-5-3-22-4-22-------------
----00-3-00-333-0-1-----00-2-00-------------


-------------------------
-------------------------
-------------------------
-------------------------
5h8p5p0--------2-2-2-2---
-------3h6p3p0-0-0-0-0---

---------------------
---------------------
---------------------
---------------------
5h8p5p0--------5-6---
-------3h6p3p0-3-4---


--------------------
--------------------
--------------------
--------------------
5--6--2----5--6--2--
3--4--0----3--4--0--


---------------
---------------
---------------
---------------
22-22-222222---
00-00-000000---


-----------------------------------------
-----------------------------------------
-----------------------------------------
-------------------7---------------------
5-2-2-2-6-2-2-2-5-2-2-2-2-2-222-2-2------
3-0-0-0-4-0-0-0---0-0-0-0-0-000-0-0------


--------------------------------------------
--------------------------------(9)(9)(9)(9)
--------------------------------------------
7-5-----------------7-5---------------------
5-3-22-5-22-555-2-3-5-3-22-4-22-------------
----00-3-00-333-0-1-----00-2-00------------


----------------------
----------------------
----------------------
----------------------
5h8p5p0--------2-2-2-2
-------3h6p3p0-0-0-0-0

----------------------
----------------------
----------------------
----------------------
5h8p5p0----------5-6--
---------3h6p3p0-3-4--


play this part fast,hold each longer than said.
---------
---------
7-10-13--
x-x -x --
5-8 -12--
----------

-----------------
-----------------
-----------------
-----------------
5-6--------------
3-4--------------
            
Submit corrections


        Life To Lifeless lessons Hard to play? Try these video lessons and learn fast Life To Lifeless lessons
        
↑ Back to top | Tablatures and chords for acoustic guitar and electric guitar, ukulele, drums are parodies/interpretations of the original songs. You may use it for private study, scholarship, research or language learning purposes only