» » »

Killswitch Engage - Life To Lifeless Tabs

Artists:  A B C D E F G H I J K L M N O P Q R S T U V W X Y Z # 

Life To Lifeless Tabs

(ver. 1) Click to play this song!
Killswitch Engage
 Rating:
4/5 (4 votes)

 Life To Lifeless lessons Tabs too difficult? Try these video lessons and learn fast
 
                .  - palm mute
h  - hammer on
p  - pull off

Tuning: Eb

*note*
Only low 4 strings shown

This tab's layout is different from my others because I originally
didn't plan to post it. However, this song was so easy, and after I
really good and I just had to share it.

Fig.1              1a
|-----------------|--------|
|-----------------|--pick--|
|--33-33--333333--|-scr*pe-|
|--11-11--111111--|---/\---|
   .. ..  ......

^^Fig.1 is rhyhm guitar. It opens the song, and proceeds for two notes after
the pick scr*pe before guitar 1 starts playing Fig.2^^

Fig. 2
|----------|----------------------------------------|
|----------|-----3--4---------3--4---------3--4-----|
|--3--4--3-|--3--1--2--3---3--1--2--3---3--1--2--3--|
|--1--2--1-|--1--------1---1--------1---1--------1--|

^^After Fig.2, play the rhythm guitar part until the verse comes in (which is
only about a few notes)^^

Fig. 3
|-----------------------|
|-----------------------|
|--3-----4-----3--33-3--|
|--1-111-2-111-1--11-1--|
     ...   ...    .. .

^^Fig.3 is the verse, and it repeats until you hear the rhythm guitar again. Those
last three palm muted chords are there give or take, they don't really matter.^^

Then the rhythm guitar starts playing for longer time. Moderate Fig.1 by adding palm
muted chords where they are needed in the song. It's very easy, and I reccommend just
playing it as you hear the song.

Fig.4            Fig.4a
|--------------||---------------------------|
|--5--3--------||--1h2p1------1h2p1---------|
|--3--1-----3--||--------3----------3--1-2--|
|--------00-3--||----------3-----------1-4--|
         ..
^^Fig.4 is the chorus, and 4a is the part after it. You can add a couple more palm muted
0s then bar your finger over the two strings again if you want, it basically optional
how you play the song. Any way the song will sound the same.^^

^^Then 4a is that part after Fig.4 plays 4x (8x for the very last chorus). This goes a little
fast, but getting it right is pretty easy.^^

Fig.5
|--------------------|
|--------------------|
|-3333-4444-33333333-|
|-1111-2222-11111111-|
  .... .... ........

^^Fig.5 is the bridge part. Then the transition between the bridge and verse again is Fig.1^^

Key:

Fig.1 -Gtr.2 intro and fill
Fig.2 -Gtr.1 intro after Fig.1
Fig.3 -Verse Riff
Fig.4 -Chorus
Fig.4a-Post Chorus
Fig.5 -Bridge
            
Submit corrections


        Life To Lifeless lessons Hard to play? Try these video lessons and learn fast Life To Lifeless lessons
        
↑ Back to top | Tablatures and chords for acoustic guitar and electric guitar, ukulele, drums are parodies/interpretations of the original songs. You may use it for private study, scholarship, research or language learning purposes only