» » »

Killswitch Engage - Just Barely Breathing Tabs

Artists:  A B C D E F G H I J K L M N O P Q R S T U V W X Y Z # 

Just Barely Breathing Tabs

(ver. 3) Click to play this song!
Killswitch Engage
 Rating:
4/5 (4 votes)

 Just Barely Breathing lessons Tabs too difficult? Try these video lessons and learn fast
 
                (Intro)
band:killswitch engage
album:alive or just breathing
tunning: drop c(cgcfad)
release notes:ive seen other tabs for this song but for those tabbes either the
intro was wrong or they were missing a couple notes, here is how you play it,

intro  clean

D|-----1-----------1------------------------------------------|
A|-------3-------3---2----------------------------------------|
F|---------2---2------3--------6-----6-----------5------------|
C|---0-------0---------0-----4---4----4-------3----3------3---|
G|-0---------0------------4--------4----4---3---3----3---3--3-|
C|-0----------------------4----------4------3----------3------|

D|----------------------------|
A|--8h10p8--8h10p8------------|
F|--8h10p8--8h10p8--9p7p5-----|
C|----------------------------|
G|----------------------------|
C|----------------------------|
   
  this part is hard to hear because it is covered up by the drums
D|---------------------------------------------------------|
A|---------------------------------------------------------|
F|----7----------5----------3----------2-------------------|
C|--5---5-5--3-3---3-3--1-1---1-1--0-0---0-----------------|
G|---------------------------------------------------------|
C|---------------------------------------------------------|

  heavy distortion
D|-----------------------------|
A|-----------------------------|
F|-----------------------------|
C|---pick-slide----------------|
G|--/-x-x-x-x-x-x-x-x-x/-------|
C|--/x-x-x-x-x-x-x-x-x/--------|

D|---------------------------------------------------------|
A|---------------------------------------------------------|
F|---------------------------------------------------------|
C|-0---0-0-7777-5555-3333-5555-4---4-4-----4-----3---3-3---|
G|-0-0-0-0---------------------4-0-4-4-0-0-4-0-0-3-0-3-3---|
C|-0-0-0-0---------------------4-0-4-4-0-0-4-0-0-3-0-3-3---|
pm   .                           .     . .   . .   .


D|----------------------------------------------------------|
A|----------------------------------------------------------|
F|----------------------------------------------------------|
C|--7777-5555-3333-5555-----7--------5--------3--------2----|
G|-----------------------5-----5--3-----3--1-----1--0-----0-|
C|----------------------------------------------------------|

there is the intro, im not surer about the rest of the song.

pm palm mute
h hammer on
p pull off


LYRICS:

Decend into hysteria
Chaos of mankind but who is listening to the voice of hatred
Tortured souls lost so completely lost
Weakened in the concept of decline, deception

Are we alive or just breathing
Don't close your eyes, see the images

The skies weep tonight, our bodies washed away
I am waiting for you, deliverance
The sun falls through the clouds
Hear my cry

  
            
Submit corrections


        Just Barely Breathing lessons Hard to play? Try these video lessons and learn fast Just Barely Breathing lessons
        
↑ Back to top | Tablatures and chords for acoustic guitar and electric guitar, ukulele, drums are parodies/interpretations of the original songs. You may use it for private study, scholarship, research or language learning purposes only