» » »

Killswitch Engage - Just Barely Breathing Tabs

Artists:  A B C D E F G H I J K L M N O P Q R S T U V W X Y Z # 

Just Barely Breathing Tabs

(ver. 2) Click to play this song!
Killswitch Engage
 Rating:
4/5 (4 votes)

 Just Barely Breathing lessons Tabs too difficult? Try these video lessons and learn fast
 
                Killswitch Engage - Just Barely Breathing

tuning cgcfad down 1 step, drop to c

Intro (clean) 2x

D|------1---------1------------------------------
A|--------3---------3----------------------------
F|----------2---------2---------6---------6------
C|---0----------0-------------4---4---------4----
G|--------------------------4------4----------4--
C|-0--------------------0-4-------------4--------

D|-----------------------------------------------
A|---------------------------8h10-8h10-----------
F|---------5---------------0-----------0---------
C|-------3---3-----------0----------------8-8-8--
G|-----3-------3--------------------------8-8-8--
C|---3-----------3---0--------------------8-8-8--

Then 2x

D|-------------------------------------------------------
A|-------------------------------------------------------
F|-------------------------------------------------------
C|--------0-0-0-----77777-55555--3333--5555--4-4-4--4-4--
G|--------0-0-0--0---------------------------4-4-4--4-4--
C|-////---0-0-0------------------------------4-4-4--4-4--

D|-------------------------------------------------------
A|-------------------------------------------------------
F|-------------------------------------------------------
C|--3-3-3-----7777-55555-33333-5555-8-10-10-12-12-10-10--
G|--3-3-3--0------------------------8-8--8--8--8--8--8---
C|--3-3-3---------------------------8-8--8--8--8--8--8---
(pick slide)

Then 1st part of verse (repeat a lot)

D|-----------------------------------------------
A|-----------------------------------------------
F|-----------------------------------------------
C|-----------------------------------------------
G|-----------------------------------------------
C|-12-0-0-0-12-0-0-0-12-13-0-0-12-0-0-10-0-0-----

2nd part 2x

D|-----------------------------------------------
A|-----------------------------------------------
F|-----------------------------------------------
C|--1-3-0-0-1-0-----1-3-0-0-1-0------------------
G|--1-3-0-0-1-0-----1-3-0-0-1-0------------------
C|--1-3-0-0-1-0-----1-3-0-0-1-0------------------

3rd part 2x

D|-----------------------------------------------
A|-----------------------------------------------
F|-----------------------------------------------
C|--9-8--0-0-1-0-----9-8-0-0-1-0--9-8--10-9------
G|--9-8--0-0-1-0-----9-8-0-0-1-0--9-8--10-9------
C|--9-8--0-0-1-0-----9-8-0-0-1-0--9-8--10-9------

Then back to 1st 2nd then 3rd until chorus

Chorus (fiddle around with this stuff) Hopefully an indicator!

D|-------------------------------------------------
A|-------------------------------------------------
F|-------------------------------------------------
C|----------3h5--7--3--0--0---5h7-5h7-3p0--3p0--0--
G|------3h5----------------------------------------
C|---0---------------------------------------------

Then bridge (the sky......)

D|-----------------------------------------------
A|-----------------------------------------------
F|-----------------------------------------------
C|---0--0--0--0---0--0--0--0---8--10--8--12--8-----
G|---0--0--0--0---0--0--0--0---8--8---8--8---8-----
C|---0--0--0--0---0--0--0--0---8--8---8--8---8-----
(Palm mute the 0's)

Thats all the bits, i know its not 100%, 
hopefully bout 90% but should get you through it!
            
Submit corrections


        Just Barely Breathing lessons Hard to play? Try these video lessons and learn fast Just Barely Breathing lessons
        
↑ Back to top | Tablatures and chords for acoustic guitar and electric guitar, ukulele, drums are parodies/interpretations of the original songs. You may use it for private study, scholarship, research or language learning purposes only