» » »

Killswitch Engage - Element Of One Tabs

Artists:  A B C D E F G H I J K L M N O P Q R S T U V W X Y Z # 

Element Of One Tabs

(ver. 3) Click to play this song!
Killswitch Engage
 Rating:
4/5 (4 votes)

 Element Of One lessons Tabs too difficult? Try these video lessons and learn fast
 
                "(2)

PM - Palm mute
\ - Slide down

Tuning: C G C F A D


Note: Acoustic parts will be tabbed later.


Intro - Guitar 1
|---------------------------------------------------|
|---------------------------------------------------|
|-10---10------------10-10-10-----------------------| x4
|-10---10---0-0-0-0--10-10-10--0--0--0-0-0-0--0-0-0-|
|--8----8---0-0-0-0---8--8--8--0--0--0-0-0-0--0-0-0-|
|-----------0-0-0-0------------0--0--0-0-0-0--0-0-0-|
PM          - - - -                  - - - -


Intro - Guitar 2
|----------------------------------|
|-5-5-5-5-5-5-5-5--3-3-3-3-3-3-3-3-|
|-7-7-7-7-7-7-7-7--5-5-5-5-5-5-5-5-| x4
|----------------------------------|
|----------------------------------|
|----------------------------------|


Verse
|------------------------------------------------------|
|------------------------------------------------------|
|------------------------------------------------------| x1
|-3-3-3-----------------------3-3-3--------------------|
|-3-3-3--5-3-----------5-3----3-3-3--5-3-0--7-5--5-3---|
|-3-3-3------3--3-3-3------3--3-3-3------------------3-|
PM- - -         - - -         - - -


|--------------------------------------------------------|
|--------------------------------------------------------|
|--------------------------------------------------------| x1
|-3-3-3---------3-3-3---------3-3-3---------3-3-3--------|
|-3-3-3--5-3----3-3-3--5-3----3-3-3---------3-3-3--------|
|-3-3-3------3--3-3-3------3--3-3-3--5-3-3--3-3-3--3-1-1-|
PM- - -         - - -         - - -         - - -         


Verse
|------------------------------------------------------|
|------------------------------------------------------|
|------------------------------------------------------| x1
|-3-3-3---------3-3-3---------3-3-3--------------------|
|-3-3-3--5-3----3-3-3--5-3----3-3-3--5-3-0--7-5--5-3---|
|-3-3-3------3--3-3-3------3--3-3-3------------------3-|
PM- - -         - - -          - - -


|--------------------------------------------------------|
|--------------------------------------------------------|
|--------------------------------------------------------| x1
|-3-3-3---------3-3-3---------3-3-3---------3-3-3--------|
|-3-3-3--5-3----3-3-3--5-3----3-3-3---------3-3-3--------|
|-3-3-3------3--3-3-3------3--3-3-3--5-3-3--3-3-3--3-1-1-|
PM- - -         - - -         - - -         - - - 
 

Chorus
|------------------------------------------------|
|------------------------------------------------|
|-3-2-5-7------------------3-2-5-7-------10-10\5-| x2
|-3-2-5-7--0-0-0--0-0-0-0--3-2-5-7--0-0--10-10\5-|
|-1-0-3-5--0-0-0--0-0-0-0--1-0-3-5--0-0---8--8\3-|
|----------0-0-0--0-0-0-0-----------0-0----------|
PM         - -    - - - -           - -


Verse
|------------------------------------------------------|
|------------------------------------------------------|
|------------------------------------------------------| x1
|-3-3-3---------3-3-3---------3-3-3--------------------|
|-3-3-3--5-3----3-3-3--5-3----3-3-3--5-3-0--7-5--5-3---|
|-3-3-3------3--3-3-3------3--3-3-3------------------3-|
PM- - -         - - -         - - -


|--------------------------------------------------------|
|--------------------------------------------------------|
|--------------------------------------------------------| x1
|-3-3-3---------3-3-3---------3-3-3---------3-3-3--------|
|-3-3-3--5-3----3-3-3--5-3----3-3-3---------3-3-3--------|
|-3-3-3------3--3-3-3------3--3-3-3--5-3-3--3-3-3--3-1-1-|
PM- - -         - - -         - - -         - - -         


Verse
|------------------------------------------------------|
|------------------------------------------------------|
|------------------------------------------------------| x1
|-3-3-3---------3-3-3---------3-3-3--------------------|
|-3-3-3--5-3----3-3-3--5-3----3-3-3--5-3-0--7-5--5-3---|
|-3-3-3------3--3-3-3------3--3-3-3------------------3-|
PM- - -         - - -         - - -


|--------------------------------------------------------|
|--------------------------------------------------------|
|--------------------------------------------------------| x1
|-3-3-3---------3-3-3---------3-3-3---------3-3-3--------|
|-3-3-3--5-3----3-3-3--5-3----3-3-3---------3-3-3--------|
|-3-3-3------3--3-3-3------3--3-3-3--5-3-3--3-3-3--3-1-1-|
PM- - -         - - -         - - -         - - - 
 

Chorus
|------------------------------------------------|
|------------------------------------------------|
|-3-2-5-7------------------3-2-5-7-------10-10\5-| x4
|-3-2-5-7--0-0-0--0-0-0-0--3-2-5-7--0-0--10-10\5-|
|-1-0-3-5--0-0-0--0-0-0-0--1-0-3-5--0-0---8--8\3-|
|----------0-0-0--0-0-0-0-----------0-0----------|
PM         - -    - - - -           - -


Guitar 1
|---------------------------------------------------|
|---------------------------------------------------|
|-10---10------------10-10-10-----------------------| x4
|-10---10---0-0-0-0--10-10-10--0--0--0-0-0-0--0-0-0-|
|--8----8---0-0-0-0---8--8--8--0--0--0-0-0-0--0-0-0-|
|-----------0-0-0-0------------0--0--0-0-0-0--0-0-0-|
PM          - - - -                  - - - -


Guitar 2
|----------------------------------|      |------|
|-5-5-5-5-5-5-5-5--3-3-3-3-3-3-3-3-|      |------|
|-7-7-7-7-7-7-7-7--5-5-5-5-5-5-5-5-| x4   |--10--| x1
|----------------------------------|      |--10--|
|----------------------------------|      |---8--|
|----------------------------------|      |---8--| 


Bridge
|------------------------------------------------------------------------------------------------|
|------------------------------------------------------------------------------------------------|
|------------------------------------------------------------------------------------------------|x2
|----------------------------------------------------7-------------7-----------------------------|
|-8-7-8-5-7--8-7-8-5-7--8-7-8-5-7--8-7-8-5-7---8-7-8----7-8-8--7-8----7-8-10-7-8-10--7-8-8-7-8-8-|
|------------------------------------------------------------------------------------------------|
PM  - - - -    - - - -    - - - -    - - - -     - -    - -    - -    - -    - -     - -   - -


|--------------------------------------------------------------------------------------|
|--------------------------------------------------------------------------------------|
|--------------------------------------------------------------------------------------|x2
|-3-0-0-0-3-5-0-0-0-3-5-0-0-0-3-5-0-0-0-3-0-0-0--5-7-0-0-0-5-7-0-0-0-5-7-0-0-0-5-0-0-0-|
|-1-0-0-0-1-3-0-0-0-1-3-0-0-0-1-5-0-0-0-1-0-0-0--3-5-0-0-0-5-5-0-0-0-3-5-0-0-0-3-0-0-0-|
|-1-0-0-0-1-3-0-0-0-1-3-0-0-0-1-3-0-0-0-1-0-0-0--3-5-0-0-0-3-5-0-0-0-3-5-0-0-0-3-0-0-0-|
    - - -     - - -     - - -     - - -   - - -      - - -     - - -     - - -   - - -

Outro
|---------------------------------------------------|
|---------------------------------------------------|
|-10---10------------10-10-10-----------------------| x2
|-10---10---0-0-0-0--10-10-10--0--0--0-0-0-0--0-0-0-|
|--8----8---0-0-0-0---8--8--8--0--0--0-0-0-0--0-0-0-|
|-----------0-0-0-0------------0--0--0-0-0-0--0-0-0-|
PM          - - - -                  - - - -

|----------------------------------------------------|       |------|
|----------------------------------------------------|       |------|
|-10-10-10-10-10-10-10-10-10-10----------------------| x2    |--10--| x4
|-10-10-10-10-10-10-10-10-10-10--0-0-0-0-0-0-0-0-0-0-|       |--10--|
|--8--8--8--8--8--8--8--8--8--8--0-0-0-0-0-0-0-0-0-0-|       |---8--|
|--------------------------------0-0-0-0-0-0-0-0-0-0-|       |---8--|
"            
Submit corrections


        Element Of One lessons Hard to play? Try these video lessons and learn fast Element Of One lessons
        
↑ Back to top | Tablatures and chords for acoustic guitar and electric guitar, ukulele, drums are parodies/interpretations of the original songs. You may use it for private study, scholarship, research or language learning purposes only