» » »

Killswitch Engage - Element Of One Tabs

Artists:  A B C D E F G H I J K L M N O P Q R S T U V W X Y Z # 

Element Of One Tabs

(ver. 2) Click to play this song!
Killswitch Engage
 Rating:
4/5 (4 votes)

 Element Of One lessons Tabs too difficult? Try these video lessons and learn fast
 
                "(1)
This is the intro.  Note: >=accent note.
Tuning:  CGCFAD

Intro:
    >                 >
D|--1--1111--1--1111--1--1111--1-1111---------------
A|--1--1111--1--1111--1--1111--1-1111---------------
F|--3--3333--3--3333--3--3333--3-3333---------------
C|--3--3333--3--3333--3--3333--3-3333---------------
G|--------------------------------------------------
C|--------------------------------------------------

    >                 >                            
D|--0--0000--0--0000--0--0000--0--0000--------------
A|--1--1111--1--1111--1--1111--1--1111--------------
F|--0--0000--0--0000--0--0000--0--0000--------------
C|--3--3333--3--3333--3--3333--3--3333--------------
G|--3--3333--3--3333--3--3333--3--3333--------------
C|--------------------------------------------------
"            
Submit corrections


        Element Of One lessons Hard to play? Try these video lessons and learn fast Element Of One lessons
        
↑ Back to top | Tablatures and chords for acoustic guitar and electric guitar, ukulele, drums are parodies/interpretations of the original songs. You may use it for private study, scholarship, research or language learning purposes only