Home » K » Khalid »

Khalid - Saturday Nights Tabs

Artists:  A B C D E F G H I J K L M N O P Q R S T U V W X Y Z # 

Saturday Nights Tabs

(ver. 2) Click to play this song!
Khalid
 Rating:
4.3/5 (10 votes)
                [Intro]
 
e|-----------x--------------x------------x--------------------|
B|-----------x--------------x------------x--------------------|
G|--------0--x----------0---x---------0--x--------0-----------|
D|----0h2----x-------0------x-----0h2----x------0---0---------|
A|--3--------x----2---------x---2--------x--0h2---------------|
E|-----------x--3-----------x------------x--------------------|
 
[Verse 1]
 
e|-----------x--------------x------------x--------------------|
B|-----------x--------------x------------x--------------------|
G|--------0--x----------0---x---------0--x--------0-----------|
D|----0h2----x-------0------x-----0h2----x------0---0---------|
A|--3--------x----2---------x---2--------x--0h2---------------|
E|-----------x--3-----------x------------x--------------------|
 
Saturday nights, blueberry cigarillos
 
Swishers make my throat hurt
 
Rolling OCB's on the side for me
 
Light 'em up and let 'em both burn
 
Family feuds, say your mom's confused
 
Off of sh*t she doesn't wanna learn
 
But daddy's gone, say he's never home
 
And wishing only makes it worse
 
 
[Pre-Chorus]
 
e|-----------x--------------x------------x--------------------|
B|-----------x--------------x------------x--------------------|
G|--------0--x----------0---x---------0--x--------0-----------|
D|----0h2----x-------0------x-----0h2----x------0---0---------|
A|--3--------x----2---------x---2--------x--0h2---------------|
E|-----------x--3-----------x------------x--------------------|
 
I guess there's certain dreams that you gotta keep
 
'Cause they'll only know what you let 'em see
 
 
[Chorus]
     (Cadd9)      (G)           (Em)        (D)
e|---------------------------------------------------------------------------|
B|---------------------------------------------3-----------------------------|
G|-------0---x------0---x----------0---x------2---x--------------------------|
D|------2----x-----0----x---------2----x-----0----x--------------------------|
A|-----3-----x----2-----x--------2-----x----0-----x--------------------------|
E|----0------x---3------x-------0------x----------x--------------------------|
 
All the things that I know
 
That your parents don't
 
They don't care like I do
 
Nowhere like I do
 
And all the things that I know
 
That your parents don't
 
They don't care like I do
 
Nowhere like I do
 
Nowhere like I do
 
Nowhere like I do
 
 
[Verse 2]
e|-----------x--------------x------------x--------------------|
B|-----------x--------------x------------x--------------------|
G|--------0--x----------0---x---------0--x--------0-----------|
D|----0h2----x-------0------x-----0h2----x------0---0---------|
A|--3--------x----2---------x---2--------x--0h2---------------|
E|-----------x--3-----------x------------x--------------------|
 
Saturday nights, light gray Silverado
 
You drive it 'cause you have to
 
Stay up working late at a job you hate
 
Fix your makeup in a dirty bathroom
 
No more love, in and out of clubs
 
Knowing what you gotta do
 
You've got plans wrapped in rubber bands
 
And that's the only thing you'll never lose
 
 
[Pre-Chorus]
e|-----------x--------------x------------x--------------------|
B|-----------x--------------x------------x--------------------|
G|--------0--x----------0---x---------0--x--------0-----------|
D|----0h2----x-------0------x-----0h2----x------0---0---------|
A|--3--------x----2---------x---2--------x--0h2---------------|
E|-----------x--3-----------x------------x--------------------|
 
I guess there's certain dreams that you gotta keep
 
'Cause they'll only know what you let 'em see
 
 
[Chorus]
     (Cadd9)      (G)           (Em)        (D)
e|---------------------------------------------------------------------------|
B|---------------------------------------------3-----------------------------|
G|-------0---x------0---x----------0---x------2---x--------------------------|
D|------2----x-----0----x---------2----x-----0----x--------------------------|
A|-----3-----x----2-----x--------2-----x----0-----x--------------------------|
E|----0------x---3------x-------0------x----------x--------------------------|
 
All the things that I know
 
That your parents don't
 
They don't care like I do
 
Nowhere like I do
 
And all the things that I know
 
That your parents don't
 
They don't care like I do
 
Nowhere like I do
 
Nowhere like I do
 
 
[Bridge]
e|-----------x-------------x------------x--------------------|
B|-----------x-------------x------------x--------------------|
G|-----------x-------------x------------x--------------------|
D|-----------x-------------x------------x--------------------|
A|-----------x-------------x------------x--------------------|
E|-----------x-------------x------------x--------------------|
 
'Cause I care, I care about you
 
There's nowhere I'd rather be
 
Than right here around you
 
I care, care about you
 
There's nowhere I'd rather be
 
 
[Chorus]
 
     (Cadd9)      (G)           (Em)        (D)
e|---------------------------------------------------------------------------|
B|---------------------------------------------3-----------------------------|
G|-------0---x------0---x----------0---x------2---x--------------------------|
D|------2----x-----0----x---------2----x-----0----x--------------------------|
A|-----3-----x----2-----x--------2-----x----0-----x--------------------------|
E|----0------x---3------x-------0------x----------x--------------------------|
 
 
All the things that I know
 
That your parents don't
 
They don't care about you
 
Nowhere like I do
 
All the things that I know
 
That your parents don't
 
Don't care about you
 
Nowhere like I
 
Nowhere like I do (Do, do, do)
 
Nowhere like I do (Do, do, do)
 
Nowhere like I do (Do, do, do)
 
Nowhere like I do (Do, do, do)
            
Submit corrections

↑ Back to top | Tablatures and chords for acoustic guitar and electric guitar, ukulele, drums are parodies/interpretations of the original songs. You may use it for private study, scholarship, research or language learning purposes only