Home » K » Kesha »

Kesha - We R Who We R Bass

Artists:  A B C D E F G H I J K L M N O P Q R S T U V W X Y Z # 

We R Who We R Bass

(ver. 1) Click to play this song!
Kesha


Tuning: Standard

This is the keyboard part of the song that plays throughout.
You can play this one of 2 ways. either the high version you hear in the song, or a 
version that i like better.

High Version -

G|-----------------------13~------------------------------------------------|
D|---------15-15---13-13----------------------------------------------------|
A|---15-15------------------------------------------------------------------|
E|--------------------------------------------------------------------------|

Low Version -

G|-------------1~-----------------------------------------------------------|
D|-----3-3-1-1--------------------------------------------------------------|
A|-3-3----------------------------------------------------------------------|
E|--------------------------------------------------------------------------|

Just repeat that throughout the whole song basically. Not much to it.
            
Submit corrections

↑ Back to top | Tablatures and chords for acoustic guitar and electric guitar, ukulele, drums are parodies/interpretations of the original songs. You may use it for private study, scholarship, research or language learning purposes only