Home » K » Kesha »

Kesha - Take It Off Tabs

Artists:  A B C D E F G H I J K L M N O P Q R S T U V W X Y Z # 

Take It Off Tabs

(ver. 3) Click to play this song!
Kesha
This is a tab that I've been about 4 days working on, so there may be some mistakes. 
Send me a message if you have a question or if there are any errors. 
It's not exactly the same as the song, but it's close.
 This is only the chorus. 
Just listen to the song and you'll hear how the tab is like it.

STANDARD TUNING 
NO CAPO

|-7---6-----8---7-8---6-5-------9------9------9-----10101010101010-|
|--6-6-7---7-8-6-8-7-6-5--6----8-7----8-7----8-7----10101010101010-|
|---5---8-6---5-----6----5-----------------------------------------|
|--------7-------------------6------6------6------6----------------|
|---------------------------5------5------5------5-----------------|
|------------------------------------------------------------------|


|-7---6-----8---7-8---6-5-------9------9------9-----10101010101010-|
|--6-6-7---7-8-6-8-7-6-5--6----8-7----8-7----8-7----10101010101010-|
|---5---8-6---5-----6----5-----------------------------------------|
|--------7-------------------6------6------6------6----------------|
|---------------------------5------5------5------5-----------------|
|------------------------------------------------------------------|


LYRICS:
There's a place downtown,
Where the freaks all come around.
It's a hole in the wall.
It's a dirty free for all.

And they turn me on.
When they Take It Off.
When they Take It Off.
Everybody Take It Off.

There's a place I know
If you're looking for a show.
Where they go hardcore
And there's glitter on the floor.

And they turn me on.
When they Take It Off.
When they Take It Off.
Everybody Take It Off.
            
Submit corrections

↑ Back to top | Tablatures and chords for acoustic guitar and electric guitar, ukulele, drums are parodies/interpretations of the original songs. You may use it for private study, scholarship, research or language learning purposes only