» » »

Kenny Loggins - House At Pooh Corner Acoustic Tabs

Artists:  A B C D E F G H I J K L M N O P Q R S T U V W X Y Z # 

House At Pooh Corner Acoustic Tabs

(ver. 1) Click to play this song!
Kenny Loggins
 Rating:
4.3/5 (9 votes)

 House At Pooh Corner Acoustic lessons Tabs too difficult? Try these video lessons and learn fast
 
                [Intro]

e|-----------0---0---0---0-------0------------------------------------------|
B|-4/5-5-4-2---0---------------0---0----------------------------------------|
G|-5/6---4-2---1---2---4---1------------------------------------------------|
D|-----------------4---6---2------------------------------------------------|
A|--------------------------------------------------------------------------|
E|--------------------------------------------------------------------------|

e|---0-----0---0-------0----------0-----------------------------------------|
B|-------------------0---0------0-------------------------------------------|
G|-----------4---2---------2---2--------------------------------------------|
D|-2---4-6------------------------------------------------------------------|
A|-4---6-7---6---4-----------4----------------------------------------------|
E|--------------------------------------------------------------------------|

e|-----------0---0----------------------------------------------------------|
B|-4/5-5-4-2---0------------------------------------------------------------|
G|-5/6---4-2---1---2-2-2-2--------------------------------------------------|
D|-----------------2-2-2-2--------------------------------------------------|
A|-----------------2-2-2-2--------------------------------------------------|
E|--------------------------------------------------------------------------|
                   D D U D

[Verse 1]

Christopher Robin and I walked along under branches lit up by the moon
e|--------------------------------4----------------------12-7-5-4------------|
B|-----0--------2--------4--------5--------5--------7------------------------|
G|-----1--------2--------4------6---6------6--------8------------------------|
D|---1---1----2---2----4---4-------------6---6----7---7----------------------|
A|----------------------------4--------------------------11-7-4-2------------|
E|-0--------2--------4-----------------5--------7----------------------------|

Posing our questions to Owl and Eeyore as our days disappeared all too soon.. But I've
e|--------------------------------4------------------------7-----7-----------|
B|-----0--------2--------4--------5--------5--------7------8-------8---------|
G|-----1--------2--------4------6---6------6--------8----9---9-------9-------|
D|---1---1----2---2----4---4-------------6---6----7--------------------------|
A|----------------------------4------------------------7-------7-------------|
E|-0--------2--------4-----------------5--------7----------------------------|

wandered much further today than I should and I can't seem to find my way back to the wood
e|-----4-----4---------------------------------------------------------------|
B|-----5-------5--------4-----4----------5-----5----------2--------7---------|
G|---6---6-------6------4-------4--------6-------6--------3--------8---------|
D|--------------------4---4-------4----6---6-------6----2---2----7---7-------|
A|-4-------4-----------------------------------------------------------------|
E|------------------4-------4--------5-------5--------2--------7-------------|


[Chorus]

So help me if you can, I've got to get
e|---------------------------------------------------------------------------|
B|-----0--------4--------2--------7------------------------------------------|
G|-----1--------4--------2--------8------------------------------------------|
D|---1---1----4---4----2---2----7---7----------------------------------------|
A|---------------------------------------------------------------------------|
E|-0--------4--------2--------7----------------------------------------------|

Back to the house at Pooh Corner by one
e|---------------------------------------------------------------------------|
B|-----0--------4--------5------7-7------------------------------------------|
G|-----1--------4--------6------8-8------------------------------------------|
D|---1---1----4---4----6---6-------------------------------------------------|
A|---------------------------------------------------------------------------|
E|-0--------4--------5--------7----------------------------------------------|

You'd be surprised there's so much to be done
e|---------------------------------------------------------------------------|
B|-----0--------4--------2--------7------------------------------------------|
G|-----1--------4--------2--------8------------------------------------------|
D|---1---1----4---4----2---2----7---7----------------------------------------|
A|---------------------------------------------------------------------------|
E|-0--------4--------2--------7----------------------------------------------|

Count all the bees in the hive       Chase all the clouds from the (chase the clouds from above)
   >     >     >    >     >     >    >     >     >
e|--------------------------------------------------------4-----4------------|
B|-4-4-4-4-4-4-4-4--0-0-0-0-0-0-0-0--4-4-4-4-4-4-4-4------5-------5----------|
G|-4-4-4-4-4-4-4-4--1-1-1-1-1-1-1-1--4-4-4-4-4-4-4-4----6---6-------6--------|
D|---------------------------------------------------------------------------|
A|----------------------------------------------------4-------4--------------|
E|-4-4-4-4-4-4-4-4--0-0-0-0-0-0-0-0--4-4-4-4-4-4-4-4-------------------------|

Back to the days of Christopher Robin and Pooh
e|-----------------------4-----4---------9--9\-5-----------------------------|
B|-----5--------4--------5-------5------10-10\-5-----------------------------|
G|-----6--------4------6---6-------6--------------2-2-2-2--------------------|
D|---6---6----4---4-------------------0-----------2-2-2-2--------------------|
A|-------------------4-------4--------------------2-2-2-2--------------------|
E|-5--------4----------------------------------------------------------------|
                                                  D D U D

[Verse 2]

Winnie the Pooh doesn't know what to do, got a honey jar stuck on his nose
e|--------------------------------4----------------------12-7-5-4------------|
B|-----0--------2--------4--------5--------5--------7------------------------|
G|-----1--------2--------4------6---6------6--------8------------------------|
D|---1---1----2---2----4---4-------------6---6----7---7----------------------|
A|----------------------------4--------------------------11-7-4-2------------|
E|-0--------2--------4-----------------5--------7----------------------------|

He came to me asking help and advice, and from there no one knows where he goes. So I
e|--------------------------------4------------------------7-----7-----------|
B|-----0--------2--------4--------5--------5--------7------8-------8---------|
G|-----1--------2--------4------6---6------6--------8----9---9-------9-------|
D|---1---1----2---2----4---4-------------6---6----7--------------------------|
A|----------------------------4------------------------7-------7-------------|
E|-0--------2--------4-----------------5--------7----------------------------|

 sent him to ask of the owl if he's there how to loosen a jar from the nose of a bear so
e|-----4-----4---------------------------------------------------------------|
B|-----5-------5--------4-----4----------5-----5----------2--------7---------|
G|---6---6-------6------4-------4--------6-------6--------3--------8---------|
D|--------------------4---4-------4----6---6-------6----2---2----7---7-------|
A|-4-------4-----------------------------------------------------------------|
E|------------------4-------4--------5-------5--------2--------7-------------|


[Chorus 2]

   help me if you can, I've got to get
e|---------------------------------------------------------------------------|
B|-----0--------4--------2--------7------------------------------------------|
G|-----1--------4--------2--------8------------------------------------------|
D|---1---1----4---4----2---2----7---7----------------------------------------|
A|---------------------------------------------------------------------------|
E|-0--------4--------2--------7----------------------------------------------|

Back to the house at Pooh Corner by one
e|---------------------------------------------------------------------------|
B|-----0--------4--------5------7-7------------------------------------------|
G|-----1--------4--------6------8-8------------------------------------------|
D|---1---1----4---4----6---6-------------------------------------------------|
A|---------------------------------------------------------------------------|
E|-0--------4--------5--------7----------------------------------------------|

You'd be surprised there's so much to be done
e|---------------------------------------------------------------------------|
B|-----0--------4--------2--------7------------------------------------------|
G|-----1--------4--------2--------8------------------------------------------|
D|---1---1----4---4----2---2----7---7----------------------------------------|
A|---------------------------------------------------------------------------|
E|-0--------4--------2--------7----------------------------------------------|

Count all the bees in the hive       Chase all the clouds from the (chase the clouds from above)
   >     >     >    >     >     >    >     >     >
e|--------------------------------------------------------4-----4------------|
B|-4-4-4-4-4-4-4-4--0-0-0-0-0-0-0-0--4-4-4-4-4-4-4-4------5-------5----------|
G|-4-4-4-4-4-4-4-4--1-1-1-1-1-1-1-1--4-4-4-4-4-4-4-4----6---6-------6--------|
D|---------------------------------------------------------------------------|
A|----------------------------------------------------4-------4--------------|
E|-4-4-4-4-4-4-4-4--0-0-0-0-0-0-0-0--4-4-4-4-4-4-4-4-------------------------|

Back to the days of Christopher Robin and Pooh
e|-----------------------4-----4---------9--9\-5-----------------------------|
B|-----5--------5--------4-----4---------9--9\-5-----------------------------|
G|-----6--------4------6---6-------6--------------2-2-2-2--------------------|
D|---6---6----4---4-------------------6-----------2-2-2-2--------------------|
A|-------------------4-------4--------------------2-2-2-2--------------------|
E|-5--------4-------------------------------------2-2-2-2--------------------|


[Interlude]
    DM7              GM7
e|--2-----2-----2----2-----2-----2-------------------------------------------|
B|----2-----2-----2----3-----3-----3-----------------------------------------|
G|------2-----2----------0-----0---------------------------------------------|
D|--0-----0-----0------------------------------------------------------------|
A|---------------------------------------------------------------------------|
E|-------------------3-----3-----3-------------------------------------------|

   Cadd9            Asus4   A         Bsus2 Bm
e|-0---0-0---0-0----0-----0-0-----0---2---2-2--2------2-3-5-2------0---------|
B|-3---3-1---3-0------3-------2-------2---2-3----3----0--------0-3-----------|
G|---0-----0-----0------2-------2-------4----------4--0----------------------|
D|---------------------------------------------------------------------------|
A|-3----------------0-------0---------2-----2--------------------------------|
E|----------------------------------------------------0----------------------|

e|-----0-----0--------------4-----4----------2-----2--2-2/12-----------------|
B|---0-----0-----0------4-----4----------2-----2------2----------------------|
G|--------------------4---4-----4------2---2-----2----2----------------------|
D|---------------------------------------------------------------------------|
A|----------------------------------------------------2----------------------|
E|-5-----4-----4----4----------------2---------------------------------------|


[Verse 3]

It's hard to explain how a few precious things seem to 
                                        follow throughout all our lives
e|------------------------------------------------------------------0---0----|
B|-----0--------2--------4----5-4-2-0-------5--------7-----------------------|
G|-----1--------2--------4------------------6--------8--------1-1/4---2------|
D|---1---1----2---2----4---4--------------6---6----7---7------2-2/6---4------|
A|----------------------------4-----------------------------2----------------|
E|-0--------2--------4------------------5--------7--------0------------------|

 After all's said and done I was watching my son sleeping there with my bear by his side
e|--------------------------------4------------------------------7-----------|
B|-----0--------2--------4--------5--------5--------7----------9-------------|
G|-----1--------2--------4------6---6------6--------8--------8---------------|
D|---1---1----2---2----4---4-------------6---6----7---7----9-----------------|
A|----------------------------4--------------------------7-------------------|
E|-0--------2--------4-----------------5--------7----------------------------|
                                                         EM7

So I tucked him in, kissed him and as I was going
e|-----4-------5-------------------------------------------------------------|
B|-----5-------5--------4-----4----------------------------------------------|
G|---6---6---6---6------4-------4--------------------------------------------|
D|--------------------4---4-------4------------------------------------------|
A|-4-------4-----------------------------------------------------------------|
E|------------------4-------4------------------------------------------------|

I swear that old bear whispered Boy, welcome home!
e|---------------------------------------------------------------------------|
B|-----5-----5----------2--------7-------------------------------------------|
G|-----6-------6--------3--------8-------------------------------------------|
D|---6---6-------6----4---4----7---------------------------------------------|
A|---------------------------------------------------------------------------|
E|-5-------5--------2--------7-----------------------------------------------|


[Chorus 3] (key change)

Believe me if you can, I've got to get back to the house at Pooh Corner by one
e|-----3--------2--------0--------2--------2-----------------0----0---2------|
B|-----3--------3--------1--------1--------3--------0--------1----1---1------|
G|---0---0----4---4----0---0----2---2----4---4------0------2---2----2---2----|
D|------------------------------------------------2---2-----------0----------|
A|----------2--------0--------0--------2-----------------0-------------------|
E|-3--------------------------------------------0----------------------------|
   G        Bm       Am7      D7       Bm       Em       Am       D6 D7

What do you know, there's so much to be done
e|-3-----3----2-----2------0----0---2----------------------------------------|
B|---0----------3----------1----1---1----------------------------------------|
G|-----0---0-------4-----0---0----2---2--------------------------------------|
D|------------------------------0--------------------------------------------|
A|------------2--------3-----------------------------------------------------|
E|-0-------------------------------------------------------------------------|
   G          Bm       C        D7

Count all the bees in the hive
   >     >     >    >     >     >
e|-2-2-2-2-2-2-2-2--3-3-3-3-3-3-3-3------------------------------------------|
B|-3-3-3-3-3-3-3-3--0-0-0-0-0-0-0-0------------------------------------------|
G|---------------------------------------------------------------------------|
D|---------------------------------------------------------------------------|
A|-2-2-2-2-2-2-2-2-----------------------------------------------------------|
E|------------------3-3-3-3-3-3-3-3------------------------------------------|
   Bm               G

  Chase all the clouds from the sky Back to the days of Christopher Robin and Pooh
   >     >     >
e|-2-2-2-2-2-2-2-2--7----5---3--0-----0--2-----2--2-----2--0-----0-----------|
B|-3-3-3-3-3-3-3-3--8----7---5----1--------3--------3--------0---------------|
G|------------------9----7---4------0--------2--------4--------0-------------|
D|---------------------------------------0-----------------------------------|
A|-2-2-2-2-2-2-2-2--------------3-----------------2--------------------------|
E|--------------------0----0-------------------------------0-----------------|
   Bm                           C        D        Bm       Em

  Back to the ways of Christopher Robin and Pooh
e|-0-----0--2-----2--2-----2--0-----0----------------------------------------|
B|---1--------3--------3--------0--------------------------------------------|
G|-----0--------2--------4--------0------------------------------------------|
D|----------0----------------------------------------------------------------|
A|-3-----------------2-------------------------------------------------------|
E|----------------------------0----------------------------------------------|

Back to the ways of
e|-0------2------0-----------------------------------------------------------|
B|---1------3----0-----------------------------------------------------------|
G|-----0------2--------------------------------------------------------------|
D|--------0------------------------------------------------------------------|
A|-3-------------------------------------------------------------------------|
E|---------------0-----------------------------------------------------------|

(strum on the bottom strings)                       
Pooh
Em (8x)

Oooooohhh...
C (4x) D (4x) Em (8x) C (4x) D (4x)

e|-----------------2--3------------------------------------------------------|
B|-8--7-5--3--1----3--3------------------------------------------------------|
G|--------------2--2--0------------------------------------------------------|
D|-----------------0---------------------------------------------------------|
A|-7--5-3--2--0-------x------------------------------------------------------|
E|--------------------3------------------------------------------------------|

            
Submit corrections


        House At Pooh Corner Acoustic lessons Hard to play? Try these video lessons and learn fast House At Pooh Corner Acoustic lessons
        
↑ Back to top | Tablatures and chords for acoustic guitar and electric guitar, ukulele, drums are parodies/interpretations of the original songs. You may use it for private study, scholarship, research or language learning purposes only