» » »

Kenny Loggins - Danger Zone Bass

Artists:  A B C D E F G H I J K L M N O P Q R S T U V W X Y Z # 

Danger Zone Bass

(ver. 1) Click to play this song!
Kenny Loggins
 Rating:
3/5 (6 votes)

 Danger Zone lessons Tabs too difficult? Try these video lessons and learn fast
 
                
My name is Francesco Giampiccolo, if you have any question ask me... My e-mail address is 

This song became famous in the 1986, when it was a part of the soundtrack of the film "Top Gun".

This tab is very strong and long, so only if you are very good you will play it.


|-------------------|-----------------------|-------------------|
|-------------------|-----------------------|-------------------|
|--0----------------|----------3--5----3----|-------------------|
|-------------------|----3--5---------------|--3----------------|

                                                                   
|-----------------------|-------------------|-----------------------|
|-----5-------5---------|-------------------|-----------------------|
|-----------------------|--0----------------|----------3--5----3----|
|--3-------3-------3----|-------------------|----3--5---------------|

                                                                   
|-------------------|-----------------------|--------5-----------7-----|
|-------------------|-----------------------|--5--7-----7--5--7-----7--|
|--0----------------|----------3--5----3----|--------------------------|
|-------------------|----3--5---------------|--------------------------|

                                                  
|--------5-----------7-----|--------5-----------7-----|
|--5--7-----7--5--7-----7--|--5--7-----7--5--7-----7--|
|--------------------------|--------------------------|
|--------------------------|--------------------------|

                                                      
|--------5-----------7-----|--------5-----------7-----|
|--5--7-----7--5--7-----7--|--5--7-----7--5--7-----7--|
|--------------------------|--------------------------|
|--------------------------|--------------------------|

                                                      
|--------5-----------7-----|--------5-----------7-----|
|--5--7-----7--5--7-----7--|--5--7-----7--5--7-----7--|
|--------------------------|--------------------------|
|--------------------------|--------------------------|
 
                                                                       
|--------5-----------7-----|---------------------|---------------------|
|--5--7-----7--5--7-----7--|---------------------|-----5-------5-------|
|--------------------------|---------------------|---------------------|
|--------------------------|--3------3--3--------|--3-------3----------|

                                                                    
|---------------------|-----------------------|---------------------|
|---------------------|-----------------------|---------------------|
|---------------------|----------3--5----3----|---------------------|
|----5----5--5--------|----3--5---------------|--3------3--3--------|


|----------------------|---------------------|---------------------|
|-----5-------5--------|---------------------|---------------------|
|----------------------|---------------------|---------------------|
|--3-------3-----------|--1------1--1--------|--1------1--1--------|

                                                                       
|---------------------|---------------------|--------5-----------7-----|
|---------------------|---------------------|--5--7-----7--5--7-----7--|
|---------------------|---------------------|--------------------------|
|--1------1--1--------|--1------1--1--------|--------------------------|

                                                     
|--------5-----------7-----|--------5-----------7-----|
|--5--7-----7--5--7-----7--|--5--7-----7--5--7-----7--|
|--------------------------|--------------------------|
|--------------------------|--------------------------|

                                                      
|--------5-----------7-----|--------5-----------7-----|
|--5--7-----7--5--7-----7--|--5--7-----7--5--7-----7--|
|--------------------------|--------------------------|
|--------------------------|--------------------------|

                                                    
|--------5-----------7-----|--------5-----------7-----|
|--5--7-----7--5--7-----7--|--5--7-----7--5--7-----7--|
|--------------------------|--------------------------|
|--------------------------|--------------------------|

                                                                       
|--------5-----------7-----|---------------------|---------------------|
|--5--7-----7--5--7-----7--|---------------------|-----5-------5-------|
|--------------------------|---------------------|---------------------|
|--------------------------|--3------3--3--------|--3-------3----------|

                                                                    
|---------------------|-----------------------|---------------------|
|---------------------|-----------------------|---------------------|
|---------------------|----------3--5----3----|---------------------|
|----5----5--5--------|----3--5---------------|--1------1--1--------|

                                                                   
|----------------------|---------------------|---------------------|
|-----5-------5--------|---------------------|---------------------|
|----------------------|---------------------|---------------------|
|--3-------3-----------|--1------1--1--------|--1------1--1--------|


|---------------------|---------------------|---------------------|
|---------------------|---------------------|---------------------|
|---------------------|---------------------|--5------5--5--------|
|--1------1--1--------|--1------1--1--------|---------------------|


|----------------------|---------------------|----------------------|
|----------------------|---------------------|----------------------|
|-----5-------5--------|--3------3--3--------|-----3-------3--------|
|--5-------5-----------|---------------------|--3-------3-----------|


|---------------------|----------------------|---------------------|
|--3------3--3--------|-----3-------3--------|--5------5--5--------|
|---------------------|----------------------|---------------------|
|---------------------|--1-------1-----------|---------------------|


|----------------------|-------------------------|--------------------------|
|-----5-------5--------|-------------------------|--------------------------|
|----------------------|-------------------------|--------------------------|
|--3-------3-----------|--5----5--5--5--5--5--5--|--5--5--5--5--5--5--5--5--|

                                                                               
|--------------------------|--------------------------|-------------------------|
|--------------------------|--------------------------|-------------------------|
|--------------------------|--------------------------|-------------------------|
|--5--5--5--5--5--5--5--5--|--5--5--5--5--5--5--5--5--|--1----1--1--1--1--1--1--|

                                                      
|--------------------------|--------------------------|
|--------------------------|--------------------------|
|--------------------------|--------------------------|
|--1--1--1--1--1--1--1--1--|--1--1--1--1--1--1--1--1--|

                                                                       
|--------------------------|-------------------|-----------------------|
|--------------------------|-------------------|-----------------------|
|--------------------------|--0----------------|----------3--5----3----|
|--1--1--1--1--1--1--1--1--|-------------------|----3--5---------------|

                                                                
|-------------------|-----------------------|-------------------|
|-------------------|-----------------------|-------------------|
|--0----------------|----------3--5----3----|-------------------|
|-------------------|----3--5---------------|--3----------------|

                                                                   
|-----------------------|-------------------|-----------------------|
|-----5-------5---------|-------------------|-----------------------|
|-----------------------|--0----------------|----------3--5----3----|
|--3-------3-------3----|-------------------|----3--5---------------|
                                                                       

|-------------------|-----------------------|--------5-----------7-----|
|-------------------|-----------------------|--5--7-----7--5--7-----7--|
|--0----------------|----------3--5----3----|--------------------------|
|-------------------|----3--5---------------|--------------------------|
                                                     

|--------5-----------7-----|--------5-----------7-----|
|--5--7-----7--5--7-----7--|--5--7-----7--5--7-----7--|
|--------------------------|--------------------------|
|--------------------------|--------------------------|
                                                      

|--------5-----------7-----|--------5-----------7-----|
|--5--7-----7--5--7-----7--|--5--7-----7--5--7-----7--|
|--------------------------|--------------------------|
|--------------------------|--------------------------|
                                                      

|--------5-----------7-----|--------5-----------7-----|
|--5--7-----7--5--7-----7--|--5--7-----7--5--7-----7--|
|--------------------------|--------------------------|
|--------------------------|--------------------------|

                                                                        
|--------5-----------7-----|---------------------|----------------------|
|--5--7-----7--5--7-----7--|---------------------|-----5-------5--------|
|--------------------------|---------------------|----------------------|
|--------------------------|--3------3--3--------|--3-------3-----------|

                                                                    
|---------------------|-----------------------|---------------------|
|---------------------|-----------------------|---------------------|
|---------------------|----------3--5----3----|---------------------|
|----5----5--5--------|----3--5---------------|--3------3--3--------|

                                                                     
|----------------------|---------------------|-----------------------|
|-----5-------5--------|---------------------|-----------------------|
|----------------------|---------------------|----------3--5----3----|
|--3-------3-----------|----5----5--5--------|----3--5---------------|

                                                                   
|---------------------|----------------------|---------------------|
|---------------------|-----3-------3--------|---------------------|
|---------------------|----------------------|--5------5--5--------|
|--1------1--1--------|--1-------1-----------|---------------------|

                                                                   
|----------------------|---------------------|----------------------|
|----------------------|---------------------|-----5-------5--------|
|-----5-------5--------|---------------------|----------------------|
|--5-------5-----------|--3------3--3--------|--3-------3-----------|

                                                                       
|-------------------------|------------------|-------------------------|
|--7--7--5--7----7--5--7--|------------------|--7--7--5--7----7--5--7--|
|-------------------------|------------------|-------------------------|
|--5--5--5--5----5--5--5--|------------------|--5--5--5--5----5--5--5--|

                                                                
|------------------|-------------------------|------------------|
|------------------|--7--7--5--7----7--5--7--|------------------|
|------------------|-------------------------|------------------|
|------------------|--5--5--5--5----5--5--5--|------------------|

                                                                   
|-------------------------|------------------|---------------------|
|--7--7--5--7----7--5--7--|------------------|---------------------|
|-------------------------|------------------|---------------------|
|--5--5--5--5----5--5--5--|------------------|--3------3--3--------|

                                                                     
|----------------------|---------------------|-----------------------|
|-----5-------5--------|---------------------|-----------------------|
|----------------------|---------------------|----------3--5----3----|
|--3-------3-----------|----5----5--5--------|----3--5---------------|

                                                                   
|---------------------|----------------------|---------------------|
|---------------------|-----5-------5--------|---------------------|
|---------------------|----------------------|---------------------|
|--3------3--3--------|--3-------3-----------|----5----5--5--------|

                                                                     
|-----------------------|---------------------|----------------------|
|-----------------------|---------------------|-----3-------3--------|
|----------3--5----3----|---------------------|----------------------|
|----3--5---------------|--1------1--1--------|--1-------1-----------|

                                                                   
|---------------------|----------------------|---------------------|
|---------------------|----------------------|---------------------|
|--5------5--5--------|-----5-------5--------|---------------------|
|---------------------|--5-------5-----------|--3------3--3--------|

                                                                    
|----------------------|-------------------------|------------------|
|-----5-------5--------|--7--7--5--7----7--5--7--|------------------|
|----------------------|-------------------------|------------------|
|--3-------3-----------|--5--5--5--5----5--5--5--|------------------|

                                                                   
---------------------|----------------------|---------------------|
---------------------|-----5-------5--------|---------------------|
---------------------|----------------------|---------------------|
--3------3--3--------|--3-------3-----------|----5----5--5--------|

                                                                     
-----------------------|---------------------|----------------------|
-----------------------|---------------------|-----5-------5--------|
----------3--5----3----|---------------------|----------------------|
----3--5---------------|--3------3--3--------|--3-------3-----------|

                                                                    
---------------------|-----------------------|---------------------|
---------------------|-----------------------|---------------------|
---------------------|----------3--5----3----|---------------------|
----5----5--5--------|----3--5---------------|--1------1--1--------|

                                                                    
----------------------|---------------------|----------------------|
-----3-------3--------|---------------------|----------------------|
----------------------|--5------5--5--------|-----5-------5--------|
--1-------1-----------|---------------------|--5-------5-----------|

                                                                       
---------------------|----------------------|-------------------------|
---------------------|-----5-------5--------|--7--7--5--7----7--5--7--|
---------------------|----------------------|-------------------------|
--3------3--3--------|--3-------3-----------|--5--5--5--5----5--5--5--|

                                                                
------------------|---------------------|----------------------|
------------------|---------------------|-----5-------5--------|
------------------|---------------------|----------------------|
------------------|--3------3--3--------|--3-------3-----------|

                                                      
---------------------|-----------------------|------||
---------------------|-----------------------|------||
---------------------|----------3--5----3----|------||
----5----5--5--------|----3--5---------------|------||
            
Submit corrections


        Danger Zone lessons Hard to play? Try these video lessons and learn fast Danger Zone lessons
        
↑ Back to top | Tablatures and chords for acoustic guitar and electric guitar, ukulele, drums are parodies/interpretations of the original songs. You may use it for private study, scholarship, research or language learning purposes only