» » »

Kenny Loggins - Foot Loose Bass

Artists:  A B C D E F G H I J K L M N O P Q R S T U V W X Y Z # 

Foot Loose Bass

(ver. 1) Click to play this song!
Kenny Loggins
 Rating:
3.4/5 (5 votes)

 Foot Loose lessons Tabs too difficult? Try these video lessons and learn fast
 
                Kenny Loggins - Foot Loose
This is the real bass tab of Foot Loose.
This song is very fast and it's difficult to follow it.
But you can learn it!!Good Luck! Rate it!

-Verse- (0:06)
-------------------------------------------------------------
------------------------------------------------------------- 
--1--1--1----1-1--1------------------------------------------ Approximately x20 
-------------------------------------------------------------

-Chorus- (1:03)
-----0------1------0-------------0------1-------1-------------------------
----------------------3-----------------------------3---------------------
--1-----1------1-----------1--1-----1-------1-----------------------------

--------3-------5------3---0----------3---0------------------0------------
--1--1------1------1------------------------------3------3----------------
----------------------------------1-----------1-------1-------------------

-----0------1------0-------------0------1-------1-------------------------
----------------------3-----------------------------3---------------------
--1-----1------1-----------1--1-----1-------1-----------------------------

--------3-------5------3---0----------7---5-------3------0----------------
--1--1------1------1-------------------------------------------3----------
----------------------------------1-----------1-------1-------------------

-----0------1------0-------------0------1-------1-------------------------
----------------------3-----------------------------3-----------1-1-1-----
--1-----1------1-----------1--1-----1-------1-----------------------------
---------------------------------------------------------4-4-4------------
            
Submit corrections


        Foot Loose lessons Hard to play? Try these video lessons and learn fast Foot Loose lessons
        
↑ Back to top | Tablatures and chords for acoustic guitar and electric guitar, ukulele, drums are parodies/interpretations of the original songs. You may use it for private study, scholarship, research or language learning purposes only