» » »

Kenny Chesney - Live Those Songs Tabs

Artists:  A B C D E F G H I J K L M N O P Q R S T U V W X Y Z # 

Live Those Songs Tabs

(ver. 2) Click to play this song!
Kenny Chesney
 Rating:
4/5 (4 votes)

 Live Those Songs lessons Tabs too difficult? Try these video lessons and learn fast
 
                Kenny Chesney  -  Live Those Songs (lead)



Cos of the amount of pinched harmonics in this solo, I'll just mark them by
putting a * above them in the tab.
Needless to say, you're gonna need to play this with a bit of distortion. :o)


***********************************************************************************************

b   =   bend                                                p   =   pulloff

\   =   slide down                                          /   =   slide up

br  =   bend & release                                      h   =   hammer-on

x   =   dead note                                           bh  =   bend & hold

r   =   release bend                                        ~   =   vibrato

***********************************************************************************************



FIRST SOLO  [2:08]

      
      *  *  * 
E-----10---------------------------------------------------------------------
B--13b--------------------------------10b--------10--------------------------
G-------12b-10b----------------10\----10b-12p10--10-12br-10------------------
D--------------12p10--10-10\9------/12---------12----------12-10-10h12-------
A-------------------12-------10---------------------------------------12-12--
E----------------------------------------------------------------------------

                 *  *     *
E-----------------------------------------------------------------------------------------|
B--13-------------------------------------------------------------------------------------|
G--12b-12br-p10--12-10--------------------------------------------------------------------|
D--------------12-----10--10--------------------------------------------------------------|
A-----------------------12--12\10p8-8-8-8-8h10p8--10-8h10p8--10-8h10p8--8\7-8\7-----------|
E-----------------------------------------------10---------10---------10-------8-5-8/10---|



END SOLO  [3:17]

                    rake
E------------------------------------------------------------------------------------
B-------------------------------------------10--10-10------------12-12-12------------
G--9brbr-9-7h9-7-9b---9bh-9-9-9r-7h9-7~~\---10--10-10b-----------12-12-12b-----------
D--------------------x-------------------/12--12------12p10-12\p0---------12p10-12~~-
A-------------------x----------------------------------------------------------------
E------------------------------------------------------------------------------------


E--------------------------------------------------------------------------------------
B--12/13-13-13-12/13-13-12/13-13-12/13-13-12/13-13-13-13------15-17-17b-17b~~---15-17b-
G--13/14-14-14-13/14-14-13/14-14-13/14-14-13/14-14-14-14-14/16-----------------x-------
D-----------------------------------------------------------------------------x--------
A--------------------------------------------------------------------------------------
E--------------------------------------------------------------------------------------

                                                                               fade out
E-------17-17------17-17-----17-17-17-17-17-17-17-17-17----------17bh~~17~17~17r---|
B--17bh-17-17-17bh-17-17-17bh---17-17-17-17-17-17-17-17r-15h17-15------------------|
G----------------------------------------------------------------------------------|
D----------------------------------------------------------------------------------|
A----------------------------------------------------------------------------------|
E----------------------------------------------------------------------------------|

            
Submit corrections


        Live Those Songs lessons Hard to play? Try these video lessons and learn fast Live Those Songs lessons
        
↑ Back to top | Tablatures and chords for acoustic guitar and electric guitar, ukulele, drums are parodies/interpretations of the original songs. You may use it for private study, scholarship, research or language learning purposes only