» » »

Kenny Chesney - Just Don't Happen Twice(2) Tabs

Artists:  A B C D E F G H I J K L M N O P Q R S T U V W X Y Z # 

Just Don't Happen Twice(2) Tabs

(ver. 3) Click to play this song!
Kenny Chesney
 Rating:
4/5 (4 votes)

 Just Don't Happen Twice(2) lessons Tabs too difficult? Try these video lessons and learn fast
 
                Kenny Chesney, Just Don't Happen Twice

/=slide all the way down fret board.



E----------------------------------------------
B--3-3-1p0-1h3---1p0-1h3----3-3-1p0-1p0--------
G--0-0-0---0-----0---0------0-0-0---0----------
D----------------------------------------------
A----------------------------------------------
E----------------------------------------------

E----------------------------------------------
B--3-3-1p0-1h3---1p0-1h3--1--------------------
G--0-0-0---0-----0---0----0--------------------
D----------------------------------------------
A----------------------------------------------
E---------------------------------12/----------

E----------------------------------------------
B--3-3-1p0-1h3---1p0-1h3--1--------------------
G--0-0-0---0-----0---0----0--------------------
D----------------------------------------------
A----------------------------------------------
E---------------------------------12/----------
            
Submit corrections


        Just Don't Happen Twice(2) lessons Hard to play? Try these video lessons and learn fast Just Don't Happen Twice(2) lessons
        
↑ Back to top | Tablatures and chords for acoustic guitar and electric guitar, ukulele, drums are parodies/interpretations of the original songs. You may use it for private study, scholarship, research or language learning purposes only