» » »

Kenny Chesney - How Forever Feels Chords

Artists:  A B C D E F G H I J K L M N O P Q R S T U V W X Y Z # 

How Forever Feels Chords

(ver. 3) Click to play this song!
Kenny Chesney
 Rating:
3.2/5 (30 votes)

 How Forever Feels lessons Tabs too difficult? Try these video lessons and learn fast
 
                
e|---------------------2-2-2-2----------------------2-2-2-2--------|
B|----------------1-1--3-3-3-3-----------------1-1--3-3-3-3--------|
G|----------------0-0--2-2-2-2-----------------0-0--2-2-2-2--------|
D|-----------2-2--2-2---------------------2-2--2-2-----------------|
A|-----------2-2--3-3---------------------2-2--3-3-----------------|
E|--3-2-1-0---------------------3-2-1-0----------------------------|

e|---------------------2-2-2-2----------------------2--------------|
B|----------------1-1--3-3-3-3-----------------1-1--3--------------|
G|----------------0-0--2-2-2-2-----------------0-0--2--------------|
D|-----------2-2--2-2---------------------2-2--2-2-----------------|
A|-----------2-2--3-3---------------------2-2--3-3-----------------|
E|--3-2-1-0---------------------3-2-1-0----------------------------|

G   D      C    D             G     D  C  D
BIG ORANGE BALL SINKIN IN THE WATER
G    D      C    D                 G     D  C   D
TOES IN THE SAND COULDN'T GET MUCH HOTTER
D      Em              C    D
LITTLE UMBRELLA SHAPED MARGARITAS 
        Em          C   D
COCONUT OIL TAN AND SENORITAS
   G   D      C         D            G   D  C  D
OH NOW I KNOW HOW JIMMY BUFFETT FEELS

G     D      C     D                 G   D  C  D
HANDS ON THE WHEEL CRUISING DOWN THE INTERSTATE
G   D     C      D          G   D  C  D
GAS PEDAL STICKS CARRIES MY CAR AWAY
               Em        C       D
I WAS GOING AS FAST AS A RAMBLER GOES
                 Em            C          D
I COULD FEEL THE SPEED FROM MY HEAD TO MY TOES
   G   D      C           D           G   D  C  D
OH NOW I KNOW HOW RICHARD PETTY FEELS

e|---------------------2-2-2-2------------------------2-2-2-2--------|
B|----------------1-1--3-3-3-3-------------------1-1--3-3-3-3--------|
G|----------------0-0--2-2-2-2-------------------0-0--2-2-2-2--------|
D|-----------2-2--2-2-----------------------2-2--2-2-----------------|
A|-----------2-2--3-3-----------------------2-2--3-3-----------------|
E|--3-2-1-0-----------------------3-2-1-0----------------------------|
 BUT I'VE BEEN AROUND THE BLOCK   DONE ALMOST EVERYTHING A BOY COULD DO
 A TIME OR TWO

e|---------------------2-2-2-2--3-3-3-3--------------------2222--2222--2222--2222----|
B|----------------1-1--3-3-3-3--3-3-3-3--1-1-1-1--1-1-1-1--3333--3333--3333--3333----|
G|----------------0-0--2-2-2-2--0-0-0-0--0-0-0-0--0-0-0-0--2222--2222--2222--2222----|
D|-----------2-2--2-2-----------0-0-0-0--2-2-2-2--2-2-2-2----------------------------|
A|-----------2-2--3-3-----------0-0-0-0--3-3-3-3--3-3-3-3----------------------------|
E|--3-2-1-0---------------------3-3-3-3----------------------------------------------|
  I'VE DONE SOME LIVING YEAH    BUT THERE IS ONE THING THAT I HAVEN'T DONE
  I'VE HAD FUN

G    D      C      D               G       D  C  D
SING TO THE MONTHS BOUGHT A LITTLE DIAMOND
G         D   C     D                  G   D  C  D
TONIGHT'S THE NIGHT FEELS LIKE PERFECT TIMING
D               Em    C      D
DAD DON'T WON'T ME ON MAMA'S FRONT STEPS
D             Em         C      D
MAN I'M GONNA DIE IF SHE REALLY SAYS YES
G D     C        D             G   D  C  D
I WANNA KNOW HOW FOREVER FEELS

e|---------------------2-2-2-2-------------------------2-2-2-2--------|
B|----------------1-1--3-3-3-3--------------------1-1--3-3-3-3--------|
G|----------------0-0--2-2-2-2--------------------0-0--2-2-2-2--------|
D|-----------2-2--2-2------------------------2-2--2-2-----------------|
A|-----------2-2--3-3------------------------2-2--3-3-----------------|
E|--3-2-1-0------------------------3-2-1-0----------------------------|
 WELL I'VE BEEN AROUND THE BLOCK   DONE ALMOST EVERYTHING A BOY COULD DO
 A TIME OR TWO

e|---------------------2-2-2-2--3-3-3-3--------------------2222--2222--2222--2222----|
B|----------------1-1--3-3-3-3--3-3-3-3--1-1-1-1--1-1-1-1--3333--3333--3333--3333----|
G|----------------0-0--2-2-2-2--0-0-0-0--0-0-0-0--0-0-0-0--2222--2222--2222--2222----|
D|-----------2-2--2-2-----------0-0-0-0--2-2-2-2--2-2-2-2----------------------------|
A|-----------2-2--3-3-----------0-0-0-0--3-3-3-3--3-3-3-3----------------------------|
E|--3-2-1-0---------------------3-3-3-3----------------------------------------------|
  I'VE DONE SOME LIVING YEAH    BUT THERE IS ONE THING THAT I HAVEN'T DONE
  I'VE HAD FUN

G D     C        D             G   D  C  D
I WANNA KNOW HOW FOREVER FEELS
    G D     C        D         G   D  C  D
HEY I WANNA KNOW HOW FOREVER FEELS
     G D     C        D        G   D  C  D
GIRL I WANNA KNOW HOW FOREVER FEELS

e|---------------------2-2-2-2----------------------2-2-2-2--------|
B|----------------1-1--3-3-3-3-----------------1-1--3-3-3-3--------|
G|----------------0-0--2-2-2-2-----------------0-0--2-2-2-2--------|
D|-----------2-2--2-2---------------------2-2--2-2-----------------|
A|-----------2-2--3-3---------------------2-2--3-3-----------------|
E|--3-2-1-0---------------------3-2-1-0----------------------------|

e|---------------------2-2-2-2----------------------2--------------|
B|----------------1-1--3-3-3-3-----------------1-1--3--------------|
G|----------------0-0--2-2-2-2-----------------0-0--2--------------|
D|-----------2-2--2-2---------------------2-2--2-2-----------------|
A|-----------2-2--3-3---------------------2-2--3-3-----------------|
E|--3-2-1-0---------------------3-2-1-0----------------------------|
            
Submit corrections


        How Forever Feels lessons Hard to play? Try these video lessons and learn fast How Forever Feels lessons
        
↑ Back to top | Tablatures and chords for acoustic guitar and electric guitar, ukulele, drums are parodies/interpretations of the original songs. You may use it for private study, scholarship, research or language learning purposes only