» » »

Kenny Chesney - How Forever Feels Tabs

Artists:  A B C D E F G H I J K L M N O P Q R S T U V W X Y Z # 

How Forever Feels Tabs

(ver. 3) Click to play this song!
Kenny Chesney
 Rating:
4/5 (4 votes)

 How Forever Feels lessons Tabs too difficult? Try these video lessons and learn fast
 
                
            Em    C   D
e------------0--------2-3-2-0^2-
b------------0----1---3-3-3-3---
g------------0----0---2-2-2-2---
d------------2----2------------- X 3
a------------2----3-------------
E---3-3-2-0--0------------------

            Em    C   D
e------------0--------2--
b------------0----1---3--
g------------0----0---2--
d------------2----2------  4th time
a------------2----3------
E---3-3-2-0--0-----------
            
Submit corrections


        How Forever Feels lessons Hard to play? Try these video lessons and learn fast How Forever Feels lessons
        
↑ Back to top | Tablatures and chords for acoustic guitar and electric guitar, ukulele, drums are parodies/interpretations of the original songs. You may use it for private study, scholarship, research or language learning purposes only