» » »

Kelsea Ballerini - Homecoming Queen Tabs

Artists:  A B C D E F G H I J K L M N O P Q R S T U V W X Y Z # 

Homecoming Queen Tabs

(ver. 1) Click to play this song!
Kelsea Ballerini
 Rating:
4.3/5 (26 votes)

 Homecoming Queen lessons Tabs too difficult? Try these video lessons and learn fast
 
                [Intro]

e|-----------0-----------------------0-----------------------0--------------|
B|--------------------------------------------------------------------------|
G|-----2-----------2-----2-----2-----------2-----2-----2-----------2-----2--|
D|--0-----0-----0-----0-----------------------------------------------------|
A|--------------------------0-----0-----0-----0-----------------------------|
E|--------------------------------------------------2-----2-----2-----2-----|

           Hey, homecoming
e|-----------0--------------------------------------------------------------|
B|--------------------------------------------------------------------------|
G|-----2-----------2-----2--------------------------------------------------|
D|--------------------------------------------------------------------------|
A|--------------------------------------------------------------------------|
E|--0-----0-----0-----0-----------------------------------------------------|

[Verse 1]

  queen,        Why do you lie?        When somebody‘s mean   Where do you 
e|-----------0-----------------------0-----------------------0--------------|
B|--------------------------------------------------------------------------|
G|-----2-----------2-----2-----2-----------2-----2-----2-----------2-----2--|
D|--0-----0-----0-----0-----------------------------------------------------|
A|--------------------------0-----0-----0-----0-----------------------------|
E|--------------------------------------------------2-----2-----2-----2-----|
   hide?         Do people 
e|-----------0--------------------------------------------------------------|
B|--------------------------------------------------------------------------|
G|-----2-----------2-----2--------------------------------------------------|
D|--2-----2-----2-----2-----------------------------------------------------|
A|--------------------------------------------------------------------------|
E|--------------------------------------------------------------------------|


   assume      you‘re always alright?   Been so good at smiling most of your
e|-----------0-----------------------0-----------------------0--------------|
B|--------------------------------------------------------------------------|
G|-----2-----------2-----2-----2-----------2-----2-----2-----------2-----2--|
D|--0-----0-----0-----0-----------------------------------------------------|
A|--------------------------0-----0-----0-----0-----------------------------|
E|--------------------------------------------------2-----2-----2-----2-----|

  life.              Look
e|-----------0--------------------------------------------------------------|
B|--------------------------------------------------------------------------|
G|-----2-----------2-----2--------------------------------------------------|
D|--2-----2-----2-----2-----------------------------------------------------|
A|--------------------------------------------------------------------------|
E|--------------------------------------------------------------------------|

[Pre-Chorus]

  damn good in the dress.     Zipping up the mess.   Dancing with your best
e|-----------0-----------------------0-----------------------0--------------|
B|--------------------------------------------------------------------------|
G|-----2-----------2-----2-----2-----------2-----2-----2-----------2-----2--|
D|--0-----0-----0-----0-----------------------------------------------------|
A|--------------------------0-----0-----0-----0-----------------------------|
E|--------------------------------------------------2-----2-----2-----2-----|

   foot forward. 
e|-----------0--------------------------------------------------------------|
B|--------------------------------------------------------------------------|
G|-----2-----------2-----2--------------------------------------------------|
D|--------------------------------------------------------------------------|
A|--------------------------------------------------------------------------|
E|--0-----0-----0-----0-----------------------------------------------------|

     Does it get hard?    to have to play the part? Nobody’s feeling sorry 
e|-----------0-----------------------0-----------------------0--------------|
B|--------------------------------------------------------------------------|
G|-----2-----------2-----2-----2-----------2-----2-----2-----------2-----2--|
D|--0-----0-----0-----0-----------------------------------------------------|
A|--------------------------0-----0-----0-----0-----------------------------|
E|--------------------------------------------------2-----2-----2-----2-----|

  for you. 
e|-----------0--------------------------------------------------------------|
B|--------------------------------------------------------------------------|
G|-----2-----------2-----2--------------------------------------------------|
D|--------------------------------------------------------------------------|
A|--------------------------------------------------------------------------|
E|--0-----0-----0-----0-----------------------------------------------------|

[Chorus]

        But what if I told you the world wouldn’t end        If you started 
e|-----------0-----------------------0-----------------------0--------------|
B|--------------------------------------------------------------------------|
G|-----2-----------2-----2-----2-----------2-----2-----2-----------2-----2--|
D|--0-----0-----0-----0-----------------------------------------------------|
A|--------------------------0-----0-----0-----0-----------------------------|
E|--------------------------------------------------2-----2-----2-----2-----|

  showing what’s under your skin. 
e|-----------0--------------------------------------------------------------|
B|--------------------------------------------------------------------------|
G|-----2-----------2-----2--------------------------------------------------|
D|--------------------------------------------------------------------------|
A|--------------------------------------------------------------------------|
E|--0-----0-----0-----0-----------------------------------------------------|

              What if you let em all in on the lie.           Even the home
e|-----------0-----------------------0-----------------------0--------------|
B|--------------------------------------------------------------------------|
G|-----2-----------2-----2-----2-----------2-----2-----2-----------2-----2--|
D|--0-----0-----0-----0-----------------------------------------------------|
A|--------------------------0-----0-----0-----0-----------------------------|
E|--------------------------------------------------2-----2-----2-----2-----|

  coming queen cries. 
e|-----------0--------------------------------------------------------------|
B|--------------------------------------------------------------------------|
G|-----2-----------2-----2--------------------------------------------------|
D|--------------------------------------------------------------------------|
A|--------------------------------------------------------------------------|
E|--0-----0-----0-----0-----------------------------------------------------|

[Instrumental]

e|-----------0-----------------------0-----------------------0--------------|
B|--------------------------------------------------------------------------|
G|-----2-----------2-----2-----2-----------2-----2-----2-----------2-----2--|
D|--0-----0-----0-----0-----------------------------------------------------|
A|--------------------------0-----0-----0-----0-----------------------------|
E|--------------------------------------------------2-----2-----2-----2-----|

           Hey homecoming
e|-----------0--------------------------------------------------------------|
B|--------------------------------------------------------------------------|
G|-----2-----------2-----2--------------------------------------------------|
D|--------------------------------------------------------------------------|
A|--------------------------------------------------------------------------|
E|--0-----0-----0-----0-----------------------------------------------------|

[Verse 2]

 queen, how’s things at home?    Still walking on eggshells when that curtain’s
e|-----------0-----------------------0-----------------------0--------------|
B|--------------------------------------------------------------------------|
G|-----2-----------2-----2-----2-----------2-----2-----2-----------2-----2--|
D|--0-----0-----0-----0-----------------------------------------------------|
A|--------------------------0-----0-----0-----0-----------------------------|
E|--------------------------------------------------2-----2-----2-----2-----|

  closed.    Did your daddy 
e|-----------0--------------------------------------------------------------|
B|--------------------------------------------------------------------------|
G|-----2-----------2-----2--------------------------------------------------|
D|--2-----2-----2-----2-----------------------------------------------------|
A|--------------------------------------------------------------------------|
E|--------------------------------------------------------------------------|


   teach you how to act tough?    Or more like your mama. Sweep it under the 
e|-----------0-----------------------0-----------------------0--------------|
B|--------------------------------------------------------------------------|
G|-----2-----------2-----2-----2-----------2-----2-----2-----------2-----2--|
D|--0-----0-----0-----0-----------------------------------------------------|
A|--------------------------0-----0-----0-----0-----------------------------|
E|--------------------------------------------------2-----2-----2-----2-----|

  rug.              look
e|-----------0--------------------------------------------------------------|
B|--------------------------------------------------------------------------|
G|-----2-----------2-----2--------------------------------------------------|
D|--2-----2-----2-----2-----------------------------------------------------|
A|--------------------------------------------------------------------------|
E|--------------------------------------------------------------------------|

[Pre-Chorus]

   damn good in the dress.    Zipping up the mess.    Dancing with you best 
e|-----------0-----------------------0-----------------------0--------------|
B|--------------------------------------------------------------------------|
G|-----2-----------2-----2-----2-----------2-----2-----2-----------2-----2--|
D|--0-----0-----0-----0-----------------------------------------------------|
A|--------------------------0-----0-----0-----0-----------------------------|
E|--------------------------------------------------2-----2-----2-----2-----|

  foot forward.
e|-----------0--------------------------------------------------------------|
B|--------------------------------------------------------------------------|
G|-----2-----------2-----2--------------------------------------------------|
D|--------------------------------------------------------------------------|
A|--------------------------------------------------------------------------|
E|--0-----0-----0-----0-----------------------------------------------------|

  Did you want the crown?  Or does it weigh you down? Nobody’s feeling sorry
e|-----------0-----------------------0-----------------------0--------------|
B|--------------------------------------------------------------------------|
G|-----2-----------2-----2-----2-----------2-----2-----2-----------2-----2--|
D|--0-----0-----0-----0-----------------------------------------------------|
A|--------------------------0-----0-----0-----0-----------------------------|
E|--------------------------------------------------2-----2-----2-----2-----|

  for you.     
e|-----------0--------------------------------------------------------------|
B|--------------------------------------------------------------------------|
G|-----2-----------2-----2--------------------------------------------------|
D|--------------------------------------------------------------------------|
A|--------------------------------------------------------------------------|
E|--0-----0-----0-----0-----------------------------------------------------|

[Chrous]

        But what I told you the world wouldn’t end          If you started    
e|-----------0-----------------------0-----------------------0--------------|
B|--------------------------------------------------------------------------|
G|-----2-----------2-----2-----2-----------2-----2-----2-----------2-----2--|
D|--0-----0-----0-----0-----------------------------------------------------|
A|--------------------------0-----0-----0-----0-----------------------------|
E|--------------------------------------------------2-----2-----2-----2-----|

   showing what’s under your skin. 
e|-----------0--------------------------------------------------------------|
B|--------------------------------------------------------------------------|
G|-----2-----------2-----2--------------------------------------------------|
D|--------------------------------------------------------------------------|
A|--------------------------------------------------------------------------|
E|--0-----0-----0-----0-----------------------------------------------------|

              What if you let em all in on the lie.           Even the home
e|-----------0-----------------------0-----------------------0--------------|
B|--------------------------------------------------------------------------|
G|-----2-----------2-----2-----2-----------2-----2-----2-----------2-----2--|
D|--0-----0-----0-----0-----------------------------------------------------|
A|--------------------------0-----0-----0-----0-----------------------------|
E|--------------------------------------------------2-----2-----2-----2-----|

  coming queen cries. 
e|-----------0--------------------------------------------------------------|
B|--------------------------------------------------------------------------|
G|-----2-----------2-----2--------------------------------------------------|
D|--------------------------------------------------------------------------|
A|--------------------------------------------------------------------------|
E|--0-----0-----0-----0-----------------------------------------------------|

             Yeah, what if I told you the sky wouldn’t fall  If you lost your
e|-----------0-----------------------0-----------------------0--------------|
B|--------------------------------------------------------------------------|
G|-----2-----------2-----2-----2-----------2-----2-----2-----------2-----2--|
D|--0-----0-----0-----0-----------------------------------------------------|
A|--------------------------0-----0-----0-----0-----------------------------|
E|--------------------------------------------------2-----2-----2-----2-----|

 composure, said to hell with it all. 
e|-----------0--------------------------------------------------------------|
B|--------------------------------------------------------------------------|
G|-----2-----------2-----2--------------------------------------------------|
D|--------------------------------------------------------------------------|
A|--------------------------------------------------------------------------|
E|--0-----0-----0-----0-----------------------------------------------------|

          Not everything pretty sparkles and shines       And even the home
e|-----------0-----------------------0-----------------------0--------------|
B|--------------------------------------------------------------------------|
G|-----2-----------2-----2-----2-----------2-----2-----2-----------2-----2--|
D|--0-----0-----0-----0-----------------------------------------------------|
A|--------------------------0-----0-----0-----0-----------------------------|
E|--------------------------------------------------2-----2-----2-----2-----|

  coming queen cries.
e|-----------0--------------------------------------------------------------|
B|--------------------------------------------------------------------------|
G|-----2-----------2-----2--------------------------------------------------|
D|--------------------------------------------------------------------------|
A|--------------------------------------------------------------------------|
E|--0-----0-----0-----0-----------------------------------------------------|

[Post-Chorus]

                   Oh, yeah.                                  even the home
e|-----------0-----------------------0-----------------------0--------------|
B|--------------------------------------------------------------------------|
G|-----2-----------2-----2-----2-----------2-----2-----2-----------2-----2--|
D|--0-----0-----0-----0-----------------------------------------------------|
A|--------------------------0-----0-----0-----0-----------------------------|
E|--------------------------------------------------2-----2-----2-----2-----|

  coming queen cries. 
e|-----------0--------------------------------------------------------------|
B|--------------------------------------------------------------------------|
G|-----2-----------2-----2--------------------------------------------------|
D|--------------------------------------------------------------------------|
A|--------------------------------------------------------------------------|
E|--0-----0-----0-----0-----------------------------------------------------|


e|-----------0-----------------------0-----------------------0--------------|
B|--------------------------------------------------------------------------|
G|-----2-----------2-----2-----2-----------2-----2-----2-----------2-----2--|
D|--0-----0-----0-----0-----------------------------------------------------|
A|--------------------------0-----0-----0-----0-----------------------------|
E|--------------------------------------------------2-----2-----2-----2-----|

          Hey, homecoming
e|-----------0--------------------------------------------------------------|
B|--------------------------------------------------------------------------|
G|-----2-----------2-----2--------------------------------------------------|
D|--------------------------------------------------------------------------|
A|--------------------------------------------------------------------------|
E|--0-----0-----0-----0-----------------------------------------------------|

  queen,      Why do you lie?      When somebody’s mean      Where do you 
e|-----------0-----------------------0-----------------------0--------------|
B|--------------------------------------------------------------------------|
G|-----2-----------2-----2-----2-----------2-----2-----2-----------2-----2--|
D|--0-----0-----0-----0-----------------------------------------------------|
A|--------------------------0-----0-----0-----0-----------------------------|
E|--------------------------------------------------2-----2-----2-----2-----|

  hide?         
e|--0-----------------------------------------------------------------------|
B|--0-----------------------------------------------------------------------|
G|--1-----------------------------------------------------------------------|
D|--2-----------------------------------------------------------------------|
A|--2-----------------------------------------------------------------------|
E|--0-----------------------------------------------------------------------|
            
Submit corrections


        Homecoming Queen lessons Hard to play? Try these video lessons and learn fast Homecoming Queen lessons
        
↑ Back to top | Tablatures and chords for acoustic guitar and electric guitar, ukulele, drums are parodies/interpretations of the original songs. You may use it for private study, scholarship, research or language learning purposes only