» » »

Kaki King - The Surface Changes Tabs

Artists:  A B C D E F G H I J K L M N O P Q R S T U V W X Y Z # 

The Surface Changes Tabs

(ver. 2) Click to play this song!
Kaki King
 Rating:
4.4/5 (8 votes)

 The Surface Changes lessons Tabs too difficult? Try these video lessons and learn fast
 
                [Intro]
D|---------------------------------------------------------------------------|
A|---------------------------------------------------------------------------|
F|--------------------------------2------------------------------------------|
D|----------2---------0----------------------2------0------------------------|
A|--------------------------3------------------3p0---------------------------|
D|----3----------0---------------------3-------------------------------------|

[Verse]
D|--------7--------0---------------------------------------------------------|
A|----------------------------7----------------------------------------------|
F|------7------------0------------2------7-----------------------------------|
D|----------2----------0--------7------------2-------0-----------------------|
A|--------------------------3--------------7---3p0---------------------------|
D|----3----------0---------------------3-------------------------------------|

[Chorus]
e|---------------------------------------------------------------------------|
B|----------7----------7----------10---------7-------------------------------|
G|---------------------------------------------------------------------------|
D|------5-7--------3-7---------7-10------3-7---------------------------------|
A|---------------------------------------------------------------------------|
E|----5----------3----------7----------3-------------------------------------|

[Outro]
e|---------------------------7-------10------10--------------7----------------|
B|-----------7---------------------------------------7------------------------|
G|-------------------7-----7-------10------10--------------7---------7--------|
D|-------3-7-----3-------3-------3-------5-------5-7-----5-------5------------|
A|-----------------7-----------------------------------------------7----------|
E|-----3-------3-------3-------3-------5-------5-------5-------5--------------|            
Submit corrections


        The Surface Changes lessons Hard to play? Try these video lessons and learn fast The Surface Changes lessons
        
↑ Back to top | Tablatures and chords for acoustic guitar and electric guitar, ukulele, drums are parodies/interpretations of the original songs. You may use it for private study, scholarship, research or language learning purposes only