Home » K » Kaki King »

Kaki King - Life Being What It Is Tabs

Artists:  A B C D E F G H I J K L M N O P Q R S T U V W X Y Z # 

Life Being What It Is Tabs

(ver. 2) Click to play this song!
Kaki King
 Rating:
4/5 (4 votes)
                Tuning: AACGAE 

e|----------------0--------------|----------------5--------------|
A|---------------0------0--------|----5----------5------5--------|
G|----0--------0------------0----|-------------5------------5----|
C|----0-------0-------0-------0--|----5-------5-------5-------5--|
A|0-------0-------0-------0------|5-------5-------5-------5------|
A|-------------------------------|-------------------------------|

e|----8-----------7--------------|----------------5--------------|
A|----------8-------7-------7----|---------------5------5--------|
G|--------------9-------7--------|----5--------5------------5----|
C|----9-------9-------7-------7--|----5-------5-------5-------5--|
A|8-------8-------7-------7------|5-------5-------5-------5------|
A|-------------------------------|-------------------------------|

When she plays the hammer-on in the beginning of the song it is during the open string chord above and she 
hammers on the first and second string on the third fret then pulls off.

And when she sings, "I stared straight into the sun, something to concentrate on" she plays:

e|-------------------------------|-------------------------------|
A|-------------------------------|----------------------0--------|
G|12------7-------9-------5------|4-------2-------0---------0----|  twice
C|12------7-------9-------5------|4-------2-------0---0-------0--|
A|-------------------------------|------------------------0------|
A|12------7-------8-------5------|3-------1-------0--------------|  

then plays this harmonic pattern

e|--------+7---------------------|
A|-------+7----------------------|
G|----+7-----+5------------------|
C|---+7--------------------------|
A|+7-----------------------------|
A|-------------------------------| 

The bridge is made up of a few different chords, so I'll list them but again the picking is similar so you can 
work it out yourself.

       x x   x x      
       5 5  11 0       
play   6 6   9 6       
twice  6 6   9 6       
       5 0   9 0       
       x x   x x       

       x x x x 0
       5 0 3 2 0
then   6 6 4 2 1
       6 6 4 2 2
       5 0 3 2 2
       x x x x x            
Submit corrections

↑ Back to top | Tablatures and chords for acoustic guitar and electric guitar, ukulele, drums are parodies/interpretations of the original songs. You may use it for private study, scholarship, research or language learning purposes only