» » »

Kaiser Chiefs - Ruby Tabs

Artists:  A B C D E F G H I J K L M N O P Q R S T U V W X Y Z # 

Ruby Tabs

(ver. 1) Click to play this song!
Kaiser Chiefs
 Rating:
4/5 (4 votes)
                Kaiser Chiefs
Yours Truly, Angry Mob

if you have anything to say about it changes or anything send to


This wont be the best one but its the best i can do sorry if theres any major mistakes.

Havent got the begining riff yet but have got all the rest.


Intro:

E|---------------------------------------------------------|
B|---------------------------------------------------------|
G|---------------------------------------------------------|
D|--------------------------------------X4-----------------|
A|---------------------------------------------------------|
E|----6-6-9--1-1-4-11-11-9-9-8-8-6-6-------4-4-3-3-1-1-----|

Verse:

   Never    Romance   So Little   Occupying
E|----------------------------------------------------------------------------|
B|-2--------------------------------------------------------------------------|
G|-3---------2---------5-----------7------------------------------------------|
D|-3---------3---------6-----------8--------------------X"--------------------|
A|-1---------3---------6-----------8------------------------------------------|
E|-----------1---------4-----------6------------------------------------------|

Chorus:

E|---------------------------------------------------------|
B|---------------------------------------------------------|
G|---------------------------------------------------------|
D|--------------------------------------X2-----------------|
A|---------------------------------------------------------|
E|----6-6-9--1-1-4-11-11-9-9-8-8-6-6-------4-4-3-3-1-1-----|


Verse: Again

E|----------------------------------------------------------------------------|
B|-2--------------------------------------------------------------------------|
G|-3---------2---------5-----------7------------------------------------------|
D|-3---------3---------6-----------8--------------------X"--------------------|
A|-1---------3---------6-----------8------------------------------------------|
E|-----------1---------4-----------6------------------------------------------|

Chorus: Again

E|---------------------------------------------------------|
B|---------------------------------------------------------|
G|---------------------------------------------------------|
D|--------------------------------------X2-----------------|
A|---------------------------------------------------------|
E|----6-6-9--1-1-4-11-11-9-9-8-8-6-6-------4-4-3-3-1-1-----|


Breakitdown:

  Could it be   Joking      Dont     Me 
E|----------------------------------------------------------------------------|
B|----------------------------------------------------------------------------|
G|--10--------------------------------------------------------------------------|
D|--10-----------11----------8-------9-------10--------------------------------------|
A|--8------------11----------8-------9-------10--------------------------------------|
E|--8------------9-----------6-------7-------8-------------------------------------|


Solo

E|-------------------------------------------------------------
B|-------------------------------------------------------------
G|-------------------------------------------------------------
D|-10-8-10-10-8-10-6-8-10-8-6-3-6-8-10-8-6-3-6-8-10-8-9-x-2----
A|-------------------------------------------------------------
E|-------------------------------------------------------------

second time end on D|-10

3rd Chorus:


E|---------------------------------------------------------|
B|---------------------------------------------------------|
G|---------------------------------------------------------|
D|----------------------------------------x4---------------|
A|---------------------------------------------------------|
E|----6-6-9--1-1-4-11-11-9-9-8-8-6-6-----------------------|

Last Chorus


E|----------------------------------------------|
B|----------------------------------------------|
G|----------------------------------------------|
D|-----------------------15-----------------------|
A|-----------------------15-----------------------|
E|----6-6-9--1-1-4-11-12-13---------------------|

its optional to do this as the last three if u want i prefer just ending on the last chord


E|--------------|
B|--------------|
G|--------------|
D|-13-14-15-----|
A|-13-14-15-----|
E|-11-12-13-----|



         
            
Submit corrections

↑ Back to top | Tablatures and chords for acoustic guitar and electric guitar, ukulele, drums are parodies/interpretations of the original songs. You may use it for private study, scholarship, research or language learning purposes only