Home » K » Kaiser Chiefs »

Kaiser Chiefs - Oh My God Bass

Artists:  A B C D E F G H I J K L M N O P Q R S T U V W X Y Z # 

Oh My God Bass

(ver. 1) Click to play this song!
Kaiser Chiefs
 Rating:
4/5 (4 votes)
                OK I'm gonna keep this really easy to play, none of that "fig 1" cr*p.
Standard Tuning (EADG)
Legend:
h= hammer on
p= pull off
/= slide up
/o= slide up to nothing
\= slide down
\o= slide down to nothing

Intro:
G:---------------------------|
D:---------------------------|     X2 then guitar comes in
A:-55--5-32---------2-3-5-8--|
E:----------33--1h3----------|

now with guitar:
G:----------------------------|
D:----10-9-7-5\o--------------|
A:-55-------------------------|
E:---------------33-----------|


G:---------------------------|
D:---------------------------|
A:-55--5-32---------2-3-5-8--|
E:----------33--1h3----------|


VERSE:
                             Dm                         Dm
G:------------------------------------------|
D:------------------------------------------|
A:--55----------------------------5-3-2-----|
E:------------------------------------------|
       Time on your side that will never end

                             G                                    G
G:-----------------------------------------|
D:-----------------------------------------|
A:----------------------------2-3-5-8------|
E:-------33---------------1h3--------------|
  The most beautiful thing you can ever spend

                             Dm                         Dm
G:------------------------------------------|
D:------------------------------------------|
A:--55----------------------------5-3-2-----|
E:------------------------------------------|
  But you work in a shirt with your nametag on it

                             G                                    G
G:-----------------------------------------|
D:-----------------------------------------|
A:----------------------------2-3-5-8------|
E:-------33---------------1h3--------------|
       Drifting apart like a plate tectonic

     G      Dm
G:-----------|
D:-----------|
A:------5555-|
E:-3333------|
  It dont matter to me

     C         Bb
G:--------------|
D:--------------|
A:-33331111-----|
E:--------------|
  It's all I wanted to be

     G      Dm
G:-----------|
D:-----------|
A:------5555-|
E:-3333------|
  It's a million miles from here

     C         Bb
G:--------------|
D:--------------|
A:-33331111-----|
E:--------------|
Somewhere more familiar

BRIDGE:
 Bb
G:-------------|
D:-------------|
A:111111111111
E:-------------

CHORUS:
Dm                                                                                       
Bb             C
G:---------------------------------------------------------------|
D:---------------------------------------------------------------|
A:---------------------------------------------------------------|
E:---------10/o-------10/o-------------------10/0---6--------8---|
and Oh My God I can't Believe it!        I've never been this far away from home

2nd verse same as first but words go :
Great rulers make for greater glory
 The only thing growing is our history
 Knock me down I'll get right back up again
 It comes back stronger than a powered up Pac-Man
 It don't matter to me
 It's all I wanted to be
 Is a million miles from here
 Somewhere over there

The song goes:
INTRO
VERSE
BRIDGE
VERSE
BRIDGE
CHORUS
VERSE
BRIDGE
CHORUS
GUITAR SOLO (play last verse riff)
CHORUS
CHORUS
            
Submit corrections

↑ Back to top | Tablatures and chords for acoustic guitar and electric guitar, ukulele, drums are parodies/interpretations of the original songs. You may use it for private study, scholarship, research or language learning purposes only